Oops, an error
Loading. Please wait.

Gap tab

98,391 views 27 this week
5 commentsread comments
1 2 3 4 5
x 18
add to favorites
×
Save as Personal and add changes to this tab that will be seen only by you. Learn more ›
×
You can save this tab as Personal to edit and correct it or add notes. All changes will be seen only by you. Learn more »
launch autoscroll
font size
0
reset
how to read this tab
guitar tuner
edit
Autoscroll
slow
fast
+/-
esc
set tempo
stop
Author
Difficulty
intermediate
Tuning: Standard

[Intro]
e|---x---/10--10--10h13p10-------8----8--8-----------------------------------|
B|---x---/11------11--------11---8----8--8-------10---------10--10--10-------|
G|---x---/10----------------10---8----8--8-------11---------11--11--11-------|
D|---x---/12---------------------8----8--8-------12---------12--12--12-------|
A|---x---/10---------------------10---10-10------12---------12--12--12-------|
E|-------------------------------8----8--8-------10----10---10--10--10-------|

e|---------------------------------------------------------------------------|
B|---11--11--11-------------10--10--10---------------------------------------|
G|---12--12--12-------------10--10--10---------------------------------------|
D|---13--13--13-------------10--10--10---------------------------------------|
A|---13--13--13-------------8---8---8----------------------------------------|
E|---11--11--11--------------------------------------------------------------|

[Verse]
e|---10---10--10--10h13p10-------8----8--8-----------------------------------|
B|---11---11------11--------11---8----8--8-------10---------10--10--10-------|
G|---10---10----------------10---8----8--8-------11---------11--11--11-------|
D|---12---12---------------------8----8--8-------12---------12--12--12-------|
A|---10---10---------------------10---10-10------12---------12--12--12-------|
E|-------------------------------8----8--8-------10----10---10--10--10-------| 

e|---------------------------------------------------------------------------|   (x5)
B|---11--11--11-------------10--10--10---------------------------------------|
G|---12--12--12-------------10--10--10---------------------------------------|
D|---13--13--13-------------10--10--10---------------------------------------|
A|---13--13--13-------------8---8---8----------------------------------------|
E|---11--11--11--------------------------------------------------------------|

e|---10---10--10--10h13p10-------8----8--8-----------------------------------|
B|---11---11------11--------11---8----8--8------10--10--10--10--8--8--8--8---|
G|---10---10----------------10---8----8--8------11--11--11--11--8--8--8--8---|
D|---12---12---------------------8----8--8------12--12--12--12--8--8--8--8---|  
A|---10---10---------------------10---10-10-----12--12--12--12--10-10-10-10--|
E|-------------------------------8----8--8------10--10--10--10--8--8--8--8---|

[Chorus]                                                
e|---------------------------------------------------------------------------|
B|---4----4-----8----8-----6-----6------8---8-----6---6----------------------|
G|---5----5-----8----8-----7-----7------8---8-----7---7----------------------|
D|---6----6-----8----8-----8-----8------10--10----8---8----------------------|  (x3)
A|---6----6-----6----6-----8-----8------10--10----8---8----------------------|
E|---4----4----------------6-----6------8---8-----6---6----------------------|

e|---------------------------------------------------------------------------|
B|---4~---------8~--------6----6--6--6---6--6---6--6-------------------------|
G|---5~---------8~--------7----7--7--7---7--7---7--7-------------------------|
D|---6~---------8~--------8----8--8--8---8--8---8--8-------------------------|  
A|---6~---------6~--------8----8--8--8---8--8---8--8-------------------------|
E|---4~-------------------6----6--6--6---6--6---6--6-------------------------|

[Breakdown]
(bit after chorus)                                                      
e|---------------------------------------------------------------------------|
B|-------13---13----13---13----8--8----8--8--8-----/15---15--15--15----------|
G|-------13---13----13---13----8--8----8--8--8-----/15---15--15--15----------|
D|-------13---13----13---13----8--8----8--8--8-----/15---15--15--15----------| 
A|---11-------11----11---11----10-10---10-10-10----/13---13--13--13----------|
E|-----------------------------8--8----8--8--8-------------------------------|

e|---------------------------------------------------------------------------|  (x2)
B|---8---8-----6---6---------------------------------------------------------|
G|---8---8-----7---7---------------------------------------------------------|
D|---10--10----8---8---------------------------------------------------------|
A|---10--10----8---8---------------------------------------------------------|
E|---8---8-----6---6---------------------------------------------------------|

[Verse]
e|---10---10--10--10h13p10-------8----8--8-----------------------------------|
B|---11---11------11--------11---8----8--8-------10---------10--10--10-------|
G|---10---10----------------10---8----8--8-------11---------11--11--11-------|
D|---12---12---------------------8----8--8-------12---------12--12--12-------|
A|---10---10---------------------10---10-10------12---------12--12--12-------|
E|-------------------------------8----8--8-------10----10---10--10--10-------| 

e|---------------------------------------------------------------------------|   (x5)
B|---11--11--11-------------10--10--10---------------------------------------|
G|---12--12--12-------------10--10--10---------------------------------------|
D|---13--13--13-------------10--10--10---------------------------------------|
A|---13--13--13-------------8---8---8----------------------------------------|
E|---11--11--11--------------------------------------------------------------|

e|---10---10--10--10h13p10-------8----8--8-----------------------------------|
B|---11---11------11--------11---8----8--8------10--10--10--10--8--8--8--8---|
G|---10---10----------------10---8----8--8------11--11--11--11--8--8--8--8---|
D|---12---12---------------------8----8--8------12--12--12--12--8--8--8--8---|  
A|---10---10---------------------10---10-10-----12--12--12--12--10-10-10-10--|
E|-------------------------------8----8--8------10--10--10--10--8--8--8--8---|

[Chorus]                                                
e|---------------------------------------------------------------------------|
B|---4----4-----8----8-----6-----6------8---8-----6---6----------------------|
G|---5----5-----8----8-----7-----7------8---8-----7---7----------------------|
D|---6----6-----8----8-----8-----8------10--10----8---8----------------------|  (x3)
A|---6----6-----6----6-----8-----8------10--10----8---8----------------------|
E|---4----4----------------6-----6------8---8-----6---6----------------------|

e|---------------------------------------------------------------------------|
B|---4~---------8~--------6----6--6--6---6--6---6--6-------------------------|
G|---5~---------8~--------7----7--7--7---7--7---7--7-------------------------|
D|---6~---------8~--------8----8--8--8---8--8---8--8-------------------------|  
A|---6~---------6~--------8----8--8--8---8--8---8--8-------------------------|
E|---4~-------------------6----6--6--6---6--6---6--6-------------------------|

[Breakdown]
(bit after chorus)                                                      
e|---------------------------------------------------------------------------|
B|-------13---13----13---13----8--8----8--8--8-----/15---15--15--15----------|
G|-------13---13----13---13----8--8----8--8--8-----/15---15--15--15----------|
D|-------13---13----13---13----8--8----8--8--8-----/15---15--15--15----------| 
A|---11-------11----11---11----10-10---10-10-10----/13---13--13--13----------|
E|-----------------------------8--8----8--8--8-------------------------------|

e|---------------------------------------------------------------------------|  (x2)
B|---8---8-----6---6---------------------------------------------------------|
G|---8---8-----7---7---------------------------------------------------------|
D|---10--10----8---8---------------------------------------------------------|
A|---10--10----8---8---------------------------------------------------------|
E|---8---8-----6---6---------------------------------------------------------|

[Bridge]
e|---8-----------------------------------------------------------------------|
B|---9----------8-----------13-----------------------------------------------|
G|---8----------8-----------13-----------------------------------------------|
D|---10---x8----8----x8-----13---x8------------------------------------------| (x2)
A|---8----------10----------11-----------------------------------------------|
E|--------------8------------------------------------------------------------|

e|---------------------------------------------------------------------------|
B|---4---4----4--4--4-----3--3---3--3----6--6--6--6--6--6--6--6--------------|
G|---5---5----5--5--5-----3--3---3--3----7--7--7--7--7--7--7--7--------------|
D|---6---6----6--6--6-----5--5---5--5----8--8--8--8--8--8--8--8--------------| (x3)
A|---6---6----6--6--6-----5--5---5--5----8--8--8--8--8--8--8--8--------------|
E|---4---4----4--4--4-----3--3---3--3----6--6--6--6--6--6--6--6--------------|

[Chorus]                                                
e|---------------------------------------------------------------------------|
B|---4----4-----8----8-----6-----6------8---8-----6---6----------------------|
G|---5----5-----8----8-----7-----7------8---8-----7---7----------------------|
D|---6----6-----8----8-----8-----8------10--10----8---8----------------------|  (x3)
A|---6----6-----6----6-----8-----8------10--10----8---8----------------------|
E|---4----4----------------6-----6------8---8-----6---6----------------------|

e|---------------------------------------------------------------------------|
B|---4~---------8~--------6----6--6--6---6--6---6--6-------------------------|
G|---5~---------8~--------7----7--7--7---7--7---7--7-------------------------|
D|---6~---------8~--------8----8--8--8---8--8---8--8-------------------------|  
A|---6~---------6~--------8----8--8--8---8--8---8--8-------------------------|
E|---4~-------------------6----6--6--6---6--6---6--6-------------------------|


************************************

| x  Dead note
| h  Hammer-on
| p  Pull-off
| /  Slide up
| ~  Vibrato

************************************

            
            
Suggest correction
Creating personal tab
Creating personal tab
You can edit any tab online and save it as your Personal.

You can edit, replace or remove any tab part or add personal notes – all changes will be seen only by you.

Personal tabs can be accessed anytime from any device, even offline.
Learn more »
comments
print report bad tab
5 comments total. Showing first comments.
+1 reply
CrazyYaz 725 Apr 08, 2008 10:52 AM

Almost Perfect! Still 5*. Nice tab man.

One correction, with the intro I think theres another small hammer on

e|---X---/10--10--10h13p10----------
B|---X---/11------11--------11h13---
G|---X---/10----------------10------
D|---X---/12------------------------
A|---X---/10------------------------
E|----------------------------------

0 reply
shooshi123 133 Apr 22, 2008 09:55 AM

Perfect if you ask me :)

0 reply
chris909090 10 Oct 03, 2008 06:35 AM

i'd say it's perfect too!

very good job! :)

guest
You may want to rate the tab now too:
select rating
Wanna post a correction for this tab? Suggest correction