Oops, an error
Loading. Please wait.
We have an official Naive tab made by UG professional guitarists. Check out the tab »
×
19,325 views 9 this week
4 commentsread comments
1 2 3 4 5
x 10
add to favorites
×
Save as Personal and add changes to this tab that will be seen only by you. Learn more ›
×
You can save this tab as Personal to edit and correct it or add notes. All changes will be seen only by you. Learn more »
launch autoscroll
font size
0
reset
how to read this tab
guitar tuner
backing track
0:00
0:00
edit
Autoscroll
slow
fast
+/-
esc
set tempo
stop
Author
-------------------------------------------------------------------------------
                             Naive – The Kooks 
-------------------------------------------------------------------------------

Tuning: Standard
 
Intro / 1 verse

e|--x-4-4-4-4-4-4-4--4-4-4-4-4-4-4--x--x--x--x--x--x--x---|
B|--x-4-4-4-4-4-4-4--5-5-5-5-5-5-5--x--x--x--x--x--x--x---|
G|--x-4-4-6-6-4-6-4--4-4-4-6-6-6-6--11-11-11-11-11-11-11--|
D|--6-6-6-4-4-4-4-4--6-6-6-4-4-4-4--8--8--8--8--8--8--8---|
A|--6-6-6-6-6-6-6-6--7-7-7-7-7-7-7--9--9--9--9--9--9--9---|
E|--4-4-4-4-4-4-4-4--4-4-7-4-4-4-4--6--6--6--6--6--6--6---|

                                If the 6 on the E dont sound
                                good to you, then just mute it!
                                    
e|--7-7-7--7-7-7-7-7--|
B|--7-7-7--7-7-7-7-7--|
G|--8-8-8--9-9-9-9-9--|  x2
D|--9-9-9--8-8-8-8-8--|  
A|--9-9-9--9-9-9-9-9--|
E|--7-7-7--7-7-7-7-7--|

e|--x-4-4-4-4-4-4-4--x-x-x-x-x-x-x--x--x--x--x--x--x--x--x--|
B|--x-4-4-4-4-4-4-4--9-9-9-9-9-9-9--x--x--x--x--x--x--x--x--|
G|--x-4-4-6-6-4-6-4--9-9-9-9-9-9-9--11-11-11-11-11-11-11-11-|
D|--6-6-6-4-4-4-4-4--9-9-9-9-9-9-9--8--8--8--8--8--8--8--8--|
A|--6-6-6-6-6-6-6-6--7-7-7-7-7-7-7--9--9--9--9--9--9--9--9--|
E|--4-4-4-4-4-4-4-4-----------------6--6--6--6--6--6--6--6--|


e|--7-7-7--7-7-7-7-7--|
B|--7-7-7--7-7-7-7-7--|
G|--8-8-8--9-9-9-9-9--|  x2 
D|--9-9-9--8-8-8-8-8--|  
A|--9-9-9--9-9-9-9-9--|
E|--7-7-7--7-7-7-7-7--|



Another variation for verse 1                                   
e|--x-4-4-4-4-4-4-4--4-4-4-4-4-4-4--x-x-x-x-x-x-x-x--|
B|--x-4-4-4-4-4-4-4--5-5-5-5-5-5-5--x-x-x-7-7-7-7-7--|
G|--x-4-4-6-6-4-6-4--4-4-4-6-6-6-6--6-6-6-6-6-6-6-6--|
D|--6-6-6-4-4-4-4-4--6-6-6-4-4-4-4--4-4-4-4-4-4-4-4--|
A|--6-6-6-6-6-6-6-6--7-7-7-7-7-7-7--x-x-x-x-x-x-x-x--|
E|--4-4-4-4-4-4-4-4--4-4-7-4-4-4-4--6-6-6-6-6-6-6-6--|
                                    Use your pinky for 7 on the B string 

e|--7-7-7--7-7-7-7-7--|
B|--7-7-7--7-7-7-7-7--|
G|--8-8-8--9-9-9-9-9--|  
D|--9-9-9--8-8-8-8-8--|  
A|--9-9-9--9-9-9-9-9--|
E|--7-7-7--7-7-7-7-7--|



Chorus

Slide down the neck to get the right swelling sound

    * 
e|--7~--------x---x---------7~--------x---x---|
B|--7~--------x---x---------7~--------x---x---|
G|--x---------4~--3~--------x---------4~--3~--|
D|--6~--------1~--1~--------6~--------1~--1~--|
A|--7~--------2~--2~--------7~--------2~--2~--|
E|--------------------------------------------|
    *slow downstroke

              *       *                                   *
e|--7~--------4~------2~--------7~-------x-x-x-x-x-x------7-------|
B|--7~--------4~------2~--------7~-------x-x-x-x-x-x------7-------|
G|--x---------4~------3~--------x--------4-4-3-3-3-3------x-------|
D|--6~--------6~------4~--------6~-------1-1-1-1-1-1------6-------|
A|--7~--------6~------4~--------7~-------2-2-2-2-2-2------7-------|
E|------------4~------2~------------------------------------------|
              * slow upstrokes                      *Strum this chord!


Verse 2

All strings not being played should be muted.
If it’s too hard to play then just use the part for verse 1  

Part 1

e|--------------------------------------------------------------|
B|--------------------------9-9-9-9-9-9-9-9-9-------------------|
G|--4-4-4-4-4-4-4-4-4-4-4---9-9-9-9-9-9-9-9-9----11-11-11-11-11 |
D|--6-6-6-6-6-6-6-6-6-6-6------------------------8--8--8--8--8--|
A|--------------------------------------------------------------|
E|--------------------------------------------------------------|

e|-------------------------------|
B|-------------------------------|
G|--11-11--11-11-11-11--9-9-9-9--| x1
D|--8--8---9--9--9--9---8—8-8-8--|
A|-------------------------------|
E|-------------------------------|

Part 2

e|--------------------------------------------------------|
B|--------------------9-9-9-9-9-9-9-9-9-------------------|
G|--4-4-----4h6p4-4---9-9-9-9-9-9-9-9-9----11-11-11-11-11-|
D|--6-6--4h6-----6--------------------------8--8--8--8--8-|
A|--------------------------------------------------------|
E|--------------------------------------------------------|
       The sweet little riff
       (If I got it right!)

e|-------------------------------|
B|-------------------------------|
G|--11-11--11-11-11-11--9-9-9-9--| x1
D|--8--8---9--9--9--9---8—8-8-8--|
A|-------------------------------|
E|-------------------------------|


e|--------------------------------------------------------------|
B|--------------------------9-9-9-9-9-9-9-9-9-------------------|
G|--4-4-4-4-4-4-4-4-4-4-4---9-9-9-9-9-9-9-9-9----11-11-11-11-11 |
D|--6-6-6-6-6-6-6-6-6-6-6------------------------8--8--8--8--8--|
A|--------------------------------------------------------------|
E|--------------------------------------------------------------|


e|-------------------------------|
B|-------------------------------|
G|--11-11--11-11-11-11--9-9-9-9--| x1
D|--8--8---9--9--9--9---8—8-8-8--|
A|-------------------------------|
E|-------------------------------|

Then part 1 again



Chorus 

All chords should be strummed!!!
   
e|--7--------x--x--------7--------x--x--|
B|--7--------x--x--------7--------x--x--|
G|--x--------4--3--------x--------4--3--|
D|--6--------1--1--------6--------1--1--|
A|--7--------2--2--------7--------2--2--|
E|--------------------------------------|
    

                      
e|--7------x-xx-4------2--------7~-------x--x--|
B|--7------x-xx-4------2--------7~-------x--x--|
G|--x------x-xx-4------3--------x--------4--3--| Goes to bridge
D|--6------x-xx-6------4--------6~-------1--1--|
A|--7------x-xx-6------4--------7~-------2--2--|
E|---------x-xx-4------2-----------------------|



Bridge

e|------------------------------------------------------------0~---|
B|------------------------------------------------------------0~---|
G|--4-4--4/-6-6-6-6/-8-8-8-8/-9--9--9--9---11/16--16v16v16v---16~--|
D|--6-6--6/-8-8-8-8/-9-9-9-9/-11-11-11-11--11/16-16v16v16v16v-16~--|
A|-----------------------------------------------------------------|
E|-----------------------------------------------------------------|
                                           Give the 16`a little vibrato

e|---------------------------------------------------------------|
B|---------------------------------------------------------------|
G|--4-4--4/-6-6-6-6/-8-8-8-8/-9--9--9--9---11-11-11-11-11-11-11--|
D|--6-6--6/-8-8-8-8/-9-9-9-9/-11-11-11-11---8--8--8--8--8--8--8--|
A|---------------------------------------------------------------|
E|---------------------------------------------------------------|


e|------------------------|
B|------------------------|
G|--11-11-11-11--9-9-9-9--|
D|---9--9--9--9--8-8-8-8--|
A|------------------------|
E|------------------------|


Verse 3 

Same as verse 1, or if you prefer then verse 2, for now, but I will 
post the correct tab when I figure it out.


Chorus
 
All chords should be strummed!!!
   
e|--7--------x--x--------7--------x--x--|
B|--7--------x--x--------7--------x--x--|
G|--x--------4--3--------x--------4--3--|
D|--6--------1--1--------6--------1--1--|
A|--7--------2--2--------7--------2--2--|
E|--------------------------------------|
    

                      
e|--7------x-xx-4------2--------7~-------x--x--|
B|--7------x-xx-4------2--------7~-------x--x--|
G|--x------x-xx-4------3--------x--------4--3--| Goes to outro 
D|--6------x-xx-6------4--------6~-------1--1--|
A|--7------x-xx-6------4--------7~-------2--2--|
E|---------x-xx-4------2-----------------------|


Outro

e|--x-x-x-x---6-6-6-6---4-4-4-4-4--7-7-7-7--|
B|--9-9-9-9---7-7-7-7---4-4-4-4-4--7-7-7-7--|
G|--9-9-9-9---6-6-6-6---4-4-4-4-4--8-8-8-8--| Repeat until the end
D|--9-9-9-9---8-8-8-8---6-6-6-6-6--9-9-9-9--|
A|--7-7-7-7---9-9-9-9---6-6-6-6-6--9-9-9-9--|
E|------------6-6-6-6---4-4-4-4-4--9-9-9-9--|


Any questions, or corrections, I’ll be happy to answer and greet!
Moldy06@hotmail.com

| /  slide up
| \  slide down
| h  hammer-on
| p  pull-off
| ~  Let ring
| +  harmonic
| x  Mute note
===============================================================================




            
            
Suggest correction
Creating personal tab
Creating personal tab
You can edit any tab online and save it as your Personal.

You can edit, replace or remove any tab part or add personal notes – all changes will be seen only by you.

Personal tabs can be accessed anytime from any device, even offline.
Learn more »
comments
print report bad tab
4 comments total. Showing first comments.
0 reply
lewisrileyljr 82 May 06, 2009 02:23 PM

this is 100% correct

0 reply
no_u 51 Jul 17, 2009 03:40 AM

this tab is a mad mate, i dno which idiot gave u a bad rating but u deserve 5stars :)

0 reply
bfog 10 Nov 29, 2010 06:51 PM

good tab, just hard to get the rhythm

guest
You may want to rate the tab now too:
select rating
Wanna post a correction for this tab? Suggest correction