Oops, an error
Loading. Please wait.

She Moves In Her Own Way bass

version 2
version 2

Whole song

Interactive

22,494 views 45 this week
1 commentread comment
1 2 3 4 5
x 7
add to favorites
×
Save as Personal and add changes to this tab that will be seen only by you. Learn more ›
×
You can save this tab as Personal to edit and correct it or add notes. All changes will be seen only by you. Learn more »
launch autoscroll
font size
0
reset
guitar tuner
edit
Autoscroll
slow
fast
+/-
esc
set tempo
stop
Author
Difficulty
Ok, not overly keen on this song. Though The Kooks are very talented and we actually 
this in my band so I thought I'd tab it. It's fairly easy, just remember the swing sort of 
to the song. It's in standard tuning. Here goes:

INTRO: (No Bass)

VERSE:
G|------------------------------------------------------|
D|------------55----------------------------------------|
A|----5-----3----3\0-0~000-2-2h5~555--------------------|
E|--3---3-----------------------------------------------|

then...

G|-----------------------------------------------------|
D|-----------------------------------------------------|
A|----5-----3-3~333p0-0~000-2-2h5~555------------------| X3
E|--3---3----------------------------------------------|


CHORUS:
G|-------------------------------------------------------------------|
D|-------------------------------------------------------------------|
A|----------5-5~555-0-0~000-3~-5~555/7-7-777-3-3-333-0~0~0~0~3-5-555-|
E|--3-3-333----------------------------------------------------------|

G|--------------------|
D|--------------------|
A|--------------------|
E|--3-3~333-3-3~333---|


BRIDGE:
G|---------------------------|
D|---------------------------|
A|--7~777-5~5~555-2-3--------| X4
E|--------------------33332--|

GUITAR SOLO:
G|---------------------------------------------------------------------------|
D|---------------------------------------------------------------------------|
A|----------5-5~555----------------------/7-7~777-5-5~555--------------------|
E|--3-3~333---------5-5~555-3~33-2332--------------------5-5~555-3~33-2332-3~|

Here's the ORDER:
-INTRO
-VERSE
-CHORUS
-VERSE
-CHORUS
-BRIDGE
-GUITAR SOLO
-CHORUS(no bass until the high E note [7 on the A string] halfway through at the same 
as the drums kick in)
-CHORUS

That's it. Just a few things:
When you see something like this: 5-5~555 the spaces (-) between the fives means a very 
rest between that note and the next.
When they are bunched together (555) it means played in fairly fast sequences.
And also this symbol (~) means ringing out the note, listen to te song for timing but 
don't change an overly large amount.

            
            
Suggest correction
Creating personal tab
Creating personal tab
You can edit any tab online and save it as your Personal.

You can edit, replace or remove any tab part or add personal notes – all changes will be seen only by you.

Personal tabs can be accessed anytime from any device, even offline.
Learn more »
comments
print report bad tab
1 comment total.
0 reply
jimmy on bass 51 Feb 07, 2016 10:30 AM

Lacks intricacies in verse and chorus, especially jumps to high G. Gives an alright idea of the bass line but nowhere near brilliant.

guest
You may want to rate the tab now too:
select rating
Wanna post a correction for this tab? Suggest correction