Oops, an error
Loading. Please wait.

She Moves In Her Own Way bass

version 3
version 3

Whole song

Interactive

4,926 views 6 this week
no commentswrite comment
1 2 3 4 5
x 3
add to favorites
×
Save as Personal and add changes to this tab that will be seen only by you. Learn more ›
×
You can save this tab as Personal to edit and correct it or add notes. All changes will be seen only by you. Learn more »
launch autoscroll
font size
0
reset
guitar tuner
edit
Autoscroll
slow
fast
+/-
esc
set tempo
stop
Author
-------------------------------------------------------------------------------
			     She Moves In Her Own Way - The Kooks
-------------------------------------------------------------------------------

Tabbed By : ChH

Tuning: Standard

Album: Inside In/Inside Out (2006)


That's what I picked out and how I use to play it. I think it's quite accurate, but for 

correct timing you better listen to the song. Nice groovy verse besides. 


Verse 1

G|----------------------------------------------|
D|-------------55---------------7---------------|
A|----5----x-3----3-------x2-x5--50-------------|
E|-\3---3------------5-5------------------------|

G|----------------------------------------------|
D|-------------------------7--------------------|
A|-------x3-3--------x2-x5--50------------------|
E|--3-3--------x5-5-----------------------------|

G|----------------------------------------------|
D|----------5--------------7--------------------|
A|-------x3--3-------x2-x5--50------------------|
E|--3-3---------5-5-----------------------------|

G|----------------------------------------------|
D|----------5---------------7-------------------|
A|-------x3--3----7---x2-x5--50-----------------|
E|--3-3---------5--5----------------------------|

G|----------------------------------------------|
D|----------------------------------------------|
A|-------x3-3--------x2-2-5-5-------------------|
E|--3-3--------x5-5-----------------------------|


Chorus 1

G|--------------------------------------|
D|--------------------------------------|
A|-----------5-5-x50-----------3-3-5-5--|
E|--3-3-x30-----------5-5-x50-----------|

G|--------------------------------------|
D|--------------------------------------|
A|--7-7-x70--3-3-x30-----------3-3-5-5--|
E|--------------------5-5-x50-----------|

G|--------------------|
D|--------------------|
A|--------------------|
E|--x3-x333-x3-x3/-\--|


Verse 2

G|---------------------------------------------|
D|-----5----55---------------7-----------------|
A|------x33----3-------x2-x5--5-0--------------|
E|-3--------------5-5--------------------------|

G|---------------------------------------------|
D|-------------------------7-------------------|
A|-------x3-3--------x2-x5--5-0----------------|
E|--3-3--------x5-5----------------------------|

G|---------------------------------------------|
D|---------------------------------------------|
A|-------x3-3--------x2-2-5-5------------------|
E|--3-3--------x5-5----------------------------|

G|---------------------------------------------|
D|----------5--------------7-------------------|
A|-------x3--3-------x2-x5--5-0----------------|
E|--3-3---------5-5----------------------------|

G|---------------------------------------------|
D|---------------------------------------------|
A|-------x3-3--------x2-2-5--------------------|
E|--3-3--------x5-5---------5------------------|


Chorus 2

G|--------------------------------------|
D|--------------------------------------|
A|-----------5-5-x50-----------3-3-5-5--|
E|--3-3-x30-----------5-5-x50-----------|

G|--------------------------------------|
D|--------------------------------------|
A|--7-7-x70--3-3-x30-----------3-3-5-5--|
E|--------------------5-5-x50-----------|

G|---------------------|
D|-------------/5------|
A|----------------5----|
E|--x3-x333-x3---------|


Bridge

G|----------------------------------------|
D|----------------------------------------|
A|--7-7-x70--5-5-x50--2-3-x30-------------|
E|-----------------------------3-33-x3-2--|

G|-------9--------------------------------|
D|----------------------------------------|
A|--7-7-x----5-5-x50--2-3-x30-------------|
E|-----------------------------3-33-x3-2--|
G|----------------------------------------|
D|----------------------------------------|
A|--7-7-x70--5-5-x50--2-3-x30-------------|
E|-----------------------------3-33-x3-2--|

G|----------------------------------------|
D|----------------------------------------|
A|--7-7-x70--5-5-x50--2-3-x30-------------|
E|-----------------------------3-33-x3-2--|


Solo

G|--------------------------------------|
D|--------------------------------------|
A|--------------------------------------|
E|--0-0-x0x--3-3-x30--5-5-x50--3-3-3-2--|

G|---------------------------------------|
D|---------------------------------------|
A|--------------5-------7----7-----------|
E|--0-0-x0x--3-3-x30--5---x5----3-3---2--|

G|-----|
D|-----|
A|-----|
E|--3--| 


Chorus 3

rest until drums and hammond come in

G|--------------------------------------|
D|--------------------------------------|
A|----7------3-3-x30-----------3-3-5-5--|
E|--------------------5-5-x50-----------|

G|--------------------------------------|
D|--------------------------------------|
A|-----------5-5-x50-----------3-3-5-5--|
E|--3-3-x30-----------5-5-x50-----------|

G|--------------------------------------|
D|--------------------------------------|
A|--7-7-x70--3-3-x30-----------3-3-5-5--|
E|--------------------5-5-x50-----------|

G|-----|
D|-----|
A|-----|
E|--3--|


Have fun!



| /  slide up
| \  slide down
| h  hammer-on
| p  pull-off
| ~  vibrato
| +  harmonic
| x  Mute note 
===============================================================================

            
            
Suggest correction
Creating personal tab
Creating personal tab
You can edit any tab online and save it as your Personal.

You can edit, replace or remove any tab part or add personal notes – all changes will be seen only by you.

Personal tabs can be accessed anytime from any device, even offline.
Learn more »
Give kudos to tab author, rate the tab!
1 2 3 4 5
comments
print report bad tab
guest
You may want to rate the tab now too:
select rating
Wanna post a correction for this tab? Suggest correction