Oops, an error
Loading. Please wait.

She Moves In Her Own Way tab

version 4
version 4

Whole song

Interactive

Video

24,311 views 126 this week
5 commentsread comments
1 2 3 4 5
x 7
add to favorites
×
Save as Personal and add changes to this tab that will be seen only by you. Learn more ›
×
You can save this tab as Personal to edit and correct it or add notes. All changes will be seen only by you. Learn more »
launch autoscroll
font size
0
reset
how to read this tab
guitar tuner
edit
Autoscroll
slow
fast
+/-
esc
set tempo
stop
Author
Difficulty
Tuning: Standard (EADGBe)

[Chords]
G:  355433
C:  x35553
D:  x57775
Am: 577555
Bm: x24432
Em: 022000

(Where there is no lead, both guitars play rhythm, its up to you what you want though...
Rhythm Guitar is only the Chords, I will Tab the detail of the Lead Guitar underneath 
chords)

[Intro]
     G     C    G  C     D   G
e|----------------------------------7------8----10------|
B|------------------------------------------------------|
G|------------------------------5/7----7/9----11----12--|
D|------------------------------------------------------|
A|------------------------------------------------------|
E|------------------------------------------------------|

[Verse 1]
G C
So at my show on Monday
     Am
I was hoping someday
 Bm     C      G
You'd be on your way to better things
    C
It's not about your make-up
  Am
Or how you try to shape up
 Bm       C     G
To these tiresome paper dreams
      C     Bm   G
Paper dreams, honey

e|-------------------------7--6/5--3~--|
B|-------------------------------------|
G|--------------------5/7--7--6/5--4~--|
D|-------------------------------------|
A|-------------------------------------|
E|-------------------------------------|

[Verse 2]
G    C
So now you pour your heart out
 Am
You're telling me you're far out
    Bm       CG
You're not about to lie down for your cause
      C
But you don't pull my strings
   Am
'Cos I'm a better man
Bm   C      G
Moving on to better things

[Chorus]
G       C
Well uh oh, oh
Am
 I love her because
    Bm       C       G
She moves in her own way
C
Well uh oh, oh
 Am
She came to my show
Bm      C      G
Just to hear about my day

e|--------------------------|
B|--------------5---5--7/8--|
G|-------5/7--7---7---------|
D|--------------------------|
A|--------------------------|
E|--------------------------|

[Verse 3]
G  C
And at the show on Tuesday
Am
 She was in her mindset
 Bm       CG
Tempered furs and spangled boots
  C
Looks are deceiving
Am
Make me believe it
e|-----------------|
B|----------13p12--|
G|----------12~~~--|
D|-----------------|
A|-----------------|
E|-----------------|

     Bm       C     G
   And these tiresome paper dreams
e|------------15----------|
B|--------15------15------|
G|-14/16--------------16--|
D|------------------------|
A|------------------------|
E|------------------------|

         C    Am
   Paper dreams, honey
e|---3---3---5---7---7---8---10--|
B|-------------------------------|
G|---4---4---5---7---7---9---11--|
D|-------------------------------|
A|-------------------------------|
E|-------------------------------|

    Bm   C   G
   Yeah
e|--------------15--|
B|------------------|
G|---12/14p12-------|
D|------------------|
A|------------------|
E|------------------|

[Verse 4]
G   C
So wont you go far
 Am
Tell me you're a keeper
     Bm       CG
Not about to lie down for your cause
      C
And you don't pull my strings
    (Fade in)
e|---15-15-15-15-15-15-15-15-15-15--|
B|---15-15-15-15-15-15-15-15-15-15--|
G|----------------------------------|
D|----------------------------------|
A|----------------------------------|
E|----------------------------------|
    Am
 'Cos I'm a better man
e---15-15-15-15-15-15-15-15-15-15--|
B---15-15-15-15-15-15-15-15-15-15--|
G----------------------------------|
D----------------------------------|
A----------------------------------|
E----------------------------------|
 Bm   C      G
 Moving on to better things
e---15-15-15-15-15-15--|
B---15-15-15-15-15-15--|
G----------------------|
D----------------------|
A----------------------|
E----------------------|

[Chorus]
G       C
Well uh oh, oh
Am
 I love her because
    Bm       C       G
She moves in her own way
C
Well uh oh, oh
 Am
She came to my show
Bm      C      G
Just to hear about my day
e|--------------|
B|--3--3h5p3h5--|
G|--------------|
D|--------------|
A|--------------|
E|--------------|

[Interlude]
Em     Bm  D
Yes I wish that we never made it
G       D Em
Through all the summers
Em      Bm
They're keeping us instead of
D
Kicking us back
G   D Em
Down through the suburbs
Em     Bm  D
Yes I wish that we never made it
G       D Em
Through all the summers
Em      Bm
They're keeping us instead of
D
Kicking us back
G   D Em
Down through the suburbs

[Solo]
        Em       Bm     D   GD   Em
e|------------------------------------------------------------------------|
B|----------------------------8---10b12--8--10----12b13-13r12--10--12-----|
G|-----------------7-----7--9---9--------------7----------------------12--|
D|---------5--7/9-----9---------------------------------------------------|
A|--7p5h7-----------------------------------------------------------------|
E|------------------------------------------------------------------------|

     Em       Bm     D C       G
e|-----------------------------17b18r17--15h17-------------------------|
B|-------------------------15-------------------17--15--13--12--10--12-|
G|--------------12--14/16-----------------------17--16--14--12--11--12-|
D|--14--12--14---------------------------------------------------------|
A|---------------------------------------------------------------------|
E|---------------------------------------------------------------------|

[Chorus]
(Guitar Optional for first part)
G     C
Well uh oh, oh
       Am
I love her because
    Bm    C        G
She moves in her own way
G C
Well uh oh, oh
 Am
She came to my show
Bm      C      G
Just to hear about my day

G       C
Well uh oh, oh
Am
 I love her because
    Bm       C       G
She moves in her own way
C
Well uh oh, oh
 Am
She came to my show
Bm      C      G (Slide to 0 and fade out)
Just to hear about my day


************************************

| /  Slide up
| ~  Vibrato
| p  Pull-off
| h  Hammer-on
| r  Release
| b  Bend

************************************

            
            
Suggest correction
Creating personal tab
Creating personal tab
You can edit any tab online and save it as your Personal.

You can edit, replace or remove any tab part or add personal notes – all changes will be seen only by you.

Personal tabs can be accessed anytime from any device, even offline.
Learn more »
comments
print report bad tab
5 comments total. Showing first comments.
0 reply
luca.win 114 Aug 08, 2009 07:17 AM

nice one

0 reply
austieman 47 Aug 09, 2009 12:30 AM

cheers man, glad you like it! Plz rate this tab!

0 reply
xulu 32 May 30, 2013 08:39 AM

Sweeeeeeet, rated this 5 stars. I love the bridge!

guest
You may want to rate the tab now too:
select rating
Wanna post a correction for this tab? Suggest correction