Oops, an error
Loading. Please wait.

Shine On bass

version 1
version 1

Whole song

7,030 views 3 this week
no commentswrite comment
1 2 3 4 5
x 3
add to favorites
×
Save as Personal and add changes to this tab that will be seen only by you. Learn more ›
×
You can save this tab as Personal to edit and correct it or add notes. All changes will be seen only by you. Learn more »
launch autoscroll
font size
0
reset
guitar tuner
edit
Autoscroll
slow
fast
+/-
esc
set tempo
stop
Author
Difficulty
-------------------------------------------------------------------------------
			    Shine On - The Kooks
-------------------------------------------------------------------------------

Tabbed By : Brotherdisco
e-mail: dubchin@gmail.com

Tuning: standard

Intro - no bass
Bass comes in at 00:32.

Verse 1 -

G|---------------------------------------------------------------------------|
D|---------------------------------------------------------------------------|
A|------6----2--1-------------6----2--1--------------------------------------|
E|-2---------------4-----2---------------4-4-4-4-4-4-4-4---------------------|

Chorus  -    2x

G|---------------------------------------------------------------------------|
D|-----------------------------6---------------------------------------------|
A|---------4-4-4-4---------4-4---4-------------------------------------------|
E|-4-4-4-4---------2-2-2-2---------------------------------------------------|

Verse 2 - 

G|---------------------------------------------------------------------------|
D|---------------4---4----------------------------4---4----------------------|
A|-----6-6-6-6-2---1--------------------6-6-6-6-2---1------------------------|
E|-2-------------------4-4-4-6\-2-2-2-2-----------------4-4-4-4-4-4-4-4------|

Repeat chorus 4x.

Bridge part - 

G|---------------------------------------------------------------------------|
D|---------------------------------------6---------6-------------------------|Just play the last
A|---------------------------------4-4-4---4-4-4-4---4---6-------------------|1 (x8) not the 
E|-1-1-1-1-1-1-1-3-4-4-4-4-2-2-2-2---------------------4---4-4-4-2-2-2-2-1(x8|whole thing.

For the solo just play verse #2 again.

Then the chorus 4x again and you're done.

| /  slide up
| \  slide down
| h  hammer-on
| p  pull-off
| ~  vibrato
| +  harmonic
| x  Mute note
===============================================================================

            
            
Suggest correction
Creating personal tab
Creating personal tab
You can edit any tab online and save it as your Personal.

You can edit, replace or remove any tab part or add personal notes – all changes will be seen only by you.

Personal tabs can be accessed anytime from any device, even offline.
Learn more »
Give kudos to tab author, rate the tab!
1 2 3 4 5
comments
print report bad tab
guest
You may want to rate the tab now too:
select rating
Wanna post a correction for this tab? Suggest correction