Oops, an error
Loading. Please wait.

Stormy Weather bass

version 1
version 1
10,872 views 3 this week
2 commentsread comments
1 2 3 4 5
x 4
add to favorites
×
Save as Personal and add changes to this tab that will be seen only by you. Learn more ›
×
You can save this tab as Personal to edit and correct it or add notes. All changes will be seen only by you. Learn more »
launch autoscroll
font size
0
reset
guitar tuner
edit
Autoscroll
slow
fast
+/-
esc
set tempo
stop
Author
I haven't got the whole song yet, this is what I've done so far. I will try to finish it 
soon as possible. If you have any corrections or additions e-mail me james.b.93@hotmail.com
Thanks (:

G|------------------|
D|------------------|
A|-----11/----------|
E|------------------| 

G|----------------------------------------------------------------|
D|----------------------------------------------------------------|
A|-----11---11-7--7-7-7-3-4-4-4-4-4-4-4-4-4-4-4-4-----------------|
E|---4----7-------------------------------------------------------| X6

G|----------------------------------------------------------------|
D|----------------------------------------------------------------|
A|-------------7--------3-4-----3-4-------------------------------|
E|---4------------------------------------------------------------|


G|----------------------------------------------------------------|
D|----------------------------------------------------------------|
A|----------------------3-4-4-4-4-4-4-4-4-4-4-4-4-----------------|
E|---4-4-4-4---0-0-0-0--------------------------------------------|

G|----------------------------------------------------------------|
D|----------------------------------------------------------------|
A|-----11---11-7--7-7-7-3-4-4-4-4-4-4-4-4-4-4-4-4-----------------|
E|---4----7-------------------------------------------------------| X2

G|----------------------------------------------------------------|
D|----------------------------------------------------------------|
A|----------------------7-7-7-7-7-7-7-7---------------------------|
E|---4-4-4-4---7-7-7-7--------------------------------------------| X2

This is what I have so far.
As I said if you have a continuation of this tab or any corrections, e-mail me
james.b.93@hotmail.com

            
            
Suggest correction
Creating personal tab
Creating personal tab
You can edit any tab online and save it as your Personal.

You can edit, replace or remove any tab part or add personal notes – all changes will be seen only by you.

Personal tabs can be accessed anytime from any device, even offline.
Learn more »
comments
print report bad tab
2 comments total.
0 reply
jessonguitar 21 May 16, 2008 12:55 AM

At start slide down from 9 to 4
Good tab, i think its a little wrong but sounds pretty good as is

+2 reply
nokovic 63 Jun 02, 2008 06:58 AM

I think it should be:

intro:
G-------------4------------------------------|
D-----------6---6----------------------------|
A---11/---4-------7-77-77-4-4-4-4-444444----| x2
E--------------------------------------------|
(the number of 4's at the end of this part may vary, play whatever sounds best)

G--------------------------------------------|
D----6-6-6-6---------------------------------|
A------------07-7-7-7-04-4-4-4-444444--------| 4x
E--------------------------------------------|

G---------------------------------------------------------------|
D----6-------------------------6-6-6-6--------------------------|
A---------07----04----04---11/---------07-7-7-7-04-4-4-4-44444--|x1
E---------------------------------------------------------------|

This is what I have so far but I think this sounds better and it's easier to play.

guest
You may want to rate the tab now too:
select rating
Wanna post a correction for this tab? Suggest correction