Oops, an error
Loading. Please wait.

Everybodys Got To Learn Sometime chords

version 5
version 5

Whole song

525 views 1 this week
no commentswrite comment
1 2 3 4 5
2 more votes to show rating
add to favorites
×
Save as Personal and add changes to this tab that will be seen only by you. Learn more ›
×
You can save this tab as Personal to edit and correct it or add notes. All changes will be seen only by you. Learn more »
launch autoscroll
font size
0
reset
transpose
0
reset
simplify chords
display chords
guitar tuner
edit
Autoscroll
slow
fast
+/-
esc
set tempo
stop
Author
Difficulty
Strumming
There is no strumming pattern for this song yet. and get +5 IQ
originally posred by Waynus of Uranus, thanks !

EVERYBODY'S GOTTA LEARN SOMETIME
Written by James Warren
This arrangement based on the release by Beck

2 beats per chord
` = 2 beats    _ = syncopated change
' = 1 beat
(tune down one whole tone for recorded key of Bb)


INTRO: (two times)
Am  `  Am/F#  F6


VERSE:
Am            `    Am/F#  F6       Am       `  Am/F#  F6
  Change your heart         look a-round you
Am            `    Am/F#  F6          Am        `  Am/F#  F6
  Change your heart         it will a-stound you            and I


PRE-CHORUS:
Am        `     E7sus4  E          Dm      F  Gsus4  'G 'G/F
Need your lovin'          like the sunshine__               and


CHORUS:
Em                      Fmaj7   ' 'F/A  Bm7b5
Everybody's gotta learn sometime
Em                      Fmaj7   ' 'F/A  Bm7b5
Everybody's gotta learn sometime
Em                      F      _Gsus4
Everybody's gotta learn sometime  hmm

LINK: (four times)
C5  _Co5

VERSE
PRE-CHORUS
CHORUS
LINK (four times)
VERSE (solo)
PRE-CHORUS
CHORUS
LINK (two times)
CHORUS
LINK (two times)
CHORUS (no vocal)
LINK (once)
CHORUS (no vocal)
LINK (four times)

================================================================================
TUNING:  6  5  4  3  2  1
         D  G  C  F  A  D 

CHORDS:
    Am  Am/F# F6  E7sus4  E   Dm  Gsus4  G  G/F  Em  Fmaj7  F/A  Bm7b5 C5  Co5
E|--0----0----1-----0-----0---1-----3----3---3---0-----0-----1-----------------|
B|--1----1----3-----3-----0---3-----1----0---0---0-----1-----1----3------------|
G|--2----2----2-----2-----1---2-----0----0---0---0-----2-----2----2----5----5--|
D|--2----4----3-----2-----2---0-----0----0---0---2-----3-----3----3----5----4--|
A|--0---------3-----2-----2----------------------2-----3-----0----2----3----3--|
E|-------2----1-----0-----0---------3----3---1---0-----1-----------------------|

CHORUS:
(let arpeggios ring)
   Em      Fmaj7         F/A Bm7b5      Em      F     Gsus4
   1 + 2 + 3 + 4     1   2   3 + 4 +    1 + 2 + 3 + 4 +   1
E|-----------------|-----------------||-----------------|-------|
B|-----------------|-----------3-----||-----------------|-------|
G|---0---------2---|-------------2---||---0---------2-0-|-------|
D|-----------------|---------------3-||-----------------|-------|
A|-----2-----3-----|---------2-------||-----2-----3-----|-------|
E|-0-----0-1-------|-----------------||-0-----0-1-------|-------|


Waynus Of Uranus
January 2008

================================================================================
posted originally by  Uranus thanks 
EVERYBODY'S GOTTA LEARN SOMETIME
Written by James Warren
This arrangement based on a live performance by Beck
Original chords apparently too complex for him to remember!

2 beats per chord
` = 2 beats    _ = change on 2+
' = 1 beat
(standard tuning sounds as written)

VERSE:
Am            `    Am/F#  F        Am    `  Am/F#  F
  Change your heart         look a-round you_________
Am            `    Am/F#  F           Am        `  Am/F#  F
  Change your heart         it will a-stound you_____       and I

PRE-CHORUS:
Am        `     Esus4  E           F       `  G  `
Need your lovin'_________ like the sunshine_____   and

CHORUS:
Em                      F       ' 'Am  Em7
Everybody's gotta learn sometime         and
Em                      F       ' 'Am  Em7
Everybody's gotta learn sometime         and
Em                      F       ' 'Am  Em7
Everybody's gotta learn sometime         hmm

LINK:
C  _C(#4)  C  _C(#4)

Repeat then end on C/G

================================================================================

CHORDS:
    Am  Am/F#  F  Esus4  E   G   Em  Em7  C  C(#4)  C/G
E|--0----0-----1----0----0---3---0----0---0---0------0--|
B|--1----1-----1----0----0---3---0----3---1---1------1--|
G|--2----2-----2----2----1---4---0----0---0---0------0--|
D|--2----4-----3----2----2---5---2----0---2---4------2--|
A|--0----------3---------2---5---2----2---3---3------3--|
E|--o----2-----1----0----0---3---0----0---o---o------3--|

o = open-string allowed to ring

            
            
Suggest correction
Creating personal tab
Creating personal tab
You can edit any tab online and save it as your Personal.

You can edit, replace or remove any tab part or add personal notes – all changes will be seen only by you.

Personal tabs can be accessed anytime from any device, even offline.
Learn more »
Give kudos to tab author, rate the tab!
1 2 3 4 5
comments
print report bad tab
guest
You may want to rate the tab now too:
select rating
Wanna post a correction for this tab? Suggest correction