Oops, an error
Loading. Please wait.
We have an official There She Goes tab made by UG professional guitarists. Check out the tab »
×
29,699 views 39 this week
3 commentsread comments
1 2 3 4 5
x 17
add to favorites
×
Save as Personal and add changes to this tab that will be seen only by you. Learn more ›
×
You can save this tab as Personal to edit and correct it or add notes. All changes will be seen only by you. Learn more »
launch autoscroll
font size
0
reset
how to read this tab
guitar tuner
edit
Autoscroll
slow
fast
+/-
esc
set tempo
stop
Author
Difficulty
Hi people this is my 1st ever tab so i hope you like it any qustions e-mail me at
Mike_c_liverpool@hotmail.com


Intro
The LAS - there she goes

E-----3---5---2---3---0---0---0---0---|
B---3---3---3---3---3---3---3---3---3-|
G-------------------------------------|
D-------------------------------------|     X3
A-------------------------------------|
E-------------------------------------|

            
            
Suggest correction
Creating personal tab
Creating personal tab
You can edit any tab online and save it as your Personal.

You can edit, replace or remove any tab part or add personal notes – all changes will be seen only by you.

Personal tabs can be accessed anytime from any device, even offline.
Learn more »
comments
print report bad tab
3 comments total.
+2 reply
DaveyC 20 Feb 06, 2006 09:22 AM

You play the intro eight times.

-1 reply
Supersonic^ 10 Apr 14, 2006 12:11 PM

actually it's
E-----3---5---2---3---0---0---0---0-----|
B---3---3---3---3---3---3---3---3---3---|
G-------------------------------------0-|
D---------------------------------------|
A---------------------------------------|
E---------------------------------------|

E-----3---5---2---3---0---0---0---0---0-|
B---3---3---3---3---3---3---3---3---3---|
G---------------------------------------|
D---------------------------------------|
A---------------------------------------|
E---------------------------------------|

repeat.

+2 reply
limade123456 10 May 09, 2006 04:11 PM

sounds higher good job u know if there were more people that would say "good job" or "atleast u tryed" maybe this world would be better good job atleast u tryed :)

guest
You may want to rate the tab now too:
select rating
Wanna post a correction for this tab? Suggest correction