Oops, an error
Loading. Please wait.
We have an official There She Goes tab made by UG professional guitarists. Check out the tab »
×
29,208 views 6 this week
3 commentsread comments
1 2 3 4 5
x 6
add to favorites
×
Save as Personal and add changes to this tab that will be seen only by you. Learn more ›
×
You can save this tab as Personal to edit and correct it or add notes. All changes will be seen only by you. Learn more »
launch autoscroll
font size
0
reset
how to read this tab
guitar tuner
edit
Autoscroll
slow
fast
+/-
esc
set tempo
stop
Author
There she goes- The La's

This is the lead guitar part for there she goes by the la's there is rhythm part as well 
I haven't tabbed that

Gtr I (E A D G B E)

The whole lead guitar part can be played without moving your hand from this position.
1st finger bars 5th fret strings 5 and 6
2nd over 7th fret on 4th string
3rd over 7th fret on 5th string
4th on 8th fret 5th string

 4/4
  Gtr I
main theme
|-------5------------------------------|
|---8-------7---8---5---5---5---5------|
|-7---7---7---7---7---7---7---7---7----|
|--------------------------------------|
|--------------------------------------|
|--------------------------------------|


bridge 1

|---------5-------------5------------------5-------------|
|---5-8-5---8-5---5-8-5---8-5---8----5-8-5---8-5----8----|
|-7-------------7-------------7----7-------------7-------|
|--------------------------------------------------------|
|--------------------------------------------------------|
|--------------------------------------------------------|
chords
|-5-5-5--5-5--5------|
|-7-7-7--7-7--5------|
|-7-7-7--7-7--7-7----|
|--------------------|
|--------------------|
|--------------------|

bridge 2
|-----5-5-5-5-5-5------|
|---5-------------8----|
|-7--------------------|
|----------------------|
|----------------------|
|----------------------|


The order is:
Main theme x 7
bridge1 x 1
chords x 1
main theme x3
bridge1 x 1
chords x 1
main theme x 3
bridge1 x 1
chords x 1
main theme x 3
bridge1 x 1
chords x 1
there is a rest for the lead guitar here i think It's hard to tell
main theme x 2
bridge2 x 2
chords x 1
main theme x 3
bridge1 x 1
chords x1
then main theme till the end

            
            
Suggest correction
Creating personal tab
Creating personal tab
You can edit any tab online and save it as your Personal.

You can edit, replace or remove any tab part or add personal notes – all changes will be seen only by you.

Personal tabs can be accessed anytime from any device, even offline.
Learn more »
comments
print report bad tab
3 comments total.
0 reply
p4philip 10 Jul 21, 2008 05:13 AM

sik tab! only wrong thing is it is called the 1st 2nd n 3rd strings not 4th 5th and 6th, otherwise completely perfect!

0 reply
lukeekul 41 Feb 26, 2009 08:31 AM

It is wrong on the 'main riff'. Only a small one though.

Instead of playing this:
|-------5------------------------------|
|---8-------7---8---5---5---5---5------|
|-7---7---7---7---7---7---7---7---7----|
|--------------------------------------|
|--------------------------------------|
|--------------------------------------|

You should play this:
|-------5------------------------------|
|---8-------7---8---5---5---5----------|
|-7---7---7---7---7---7---7---7---7----|
|-------------------------------7------|
|--------------------------------------|
|--------------------------------------|

:)

+1 reply
lukeekul 41 Feb 26, 2009 08:34 AM

Sorry, forget my last post, i meant:

Instead of playing this:
|-------5------------------------------|
|---8-------7---8---5---5---5---5------|
|-7---7---7---7---7---7---7---7---7----|
|--------------------------------------|
|--------------------------------------|
|--------------------------------------|

You should play this:
|-------5------------------------------|
|---8-------7---8---5---5---5----------|
|-7---7---7---7---7---7---7---7--------|
|-------------------------------5------|
|--------------------------------------|
|--------------------------------------|

:)

guest
You may want to rate the tab now too:
select rating
Wanna post a correction for this tab? Suggest correction