Oops, an error
Loading. Please wait.

Black Plant tab

version 1
version 1

Whole song

Interactive

3,760 views 3 this week
no commentswrite comment
1 2 3 4 5
2 more votes to show rating
add to favorites
×
Save as Personal and add changes to this tab that will be seen only by you. Learn more ›
×
You can save this tab as Personal to edit and correct it or add notes. All changes will be seen only by you. Learn more »
launch autoscroll
font size
0
reset
how to read this tab
guitar tuner
edit
Autoscroll
slow
fast
+/-
esc
set tempo
stop
Author
-------------------------------------------------------------------------------
                             BLACK PLANT - The Last Shadow Puppets
-------------------------------------------------------------------------------
Tabbed by: Fozza2008
Email: r.forest@hotmail.co.uk

Tuning: Standard

Chords Used:

BM : (799777)
AM : (577555)
G  : (355433)
F  : (133211)
EM : (022000)
DM : (xx0231)
A5 : (577xxx)
F5 : (133xxx)

Guitar One (Acoustic)

Intro

BM         BM         AM       BM
ooh        ooh        ooh      oh
(drums enter)
BM        AM         BM        


    BM
You bit your lip,and on the tip
   Am                 Bm
Of your tongue was your view
He Hadn't Delt with how you felt
   AM 
In ways that suited you.

Am
Got paper cuts
From the love letter
    G     F
You ne - ver gave him
 Am
Could not meet
Your new found needs
     G       F
for mis - behaving.

Em
Why
                 Dm
Why would you say sorry
              Em
Oh, why would you say
                    A5 F5 A5 F5
Why would you say

Bm    Am    BM

    BM
You said there
                      AM
Was a nagging lack of smiles
             BM
When dancing on your back
Tenderness a plenty but
     AM              BM
That wasn't what you    craved

        AM
There's holes in hearts,
                 G         F
desire starts to make de - mands,
    AM
And dear boy you'd be a fool
   G        F                EM
To make your plans with her.


                 DM
Why would you say sorry
                 EM
Oh, why would you
                 DM
Why would you say sorry
                 EM
Oh, why would you



When it's just one
  A5    F5
Of many bullets
A5       F5
You will bite
      A5  F5
While waiting
      A5      F5
For a ray of light
A5  F5
waiting
      A5      F5
For a ray of light
A5  F5
waiting
      A5      F5
For a ray of light


e|-------------------------------------------------------------------------|
B|---------------------------------12--------------------------(12)--------|
G|--------------------11-12---14--------12---14---11---(11)(12)------------|
D|---9----12--11----9--------------------------------------------------(X2)|
A|-------------------------------------------------------------------------|
E|-------------------------------------------------------------------------|


Am
Got paper cuts
From the love letter
    G     F
You ne - ver gave him
 Am
Could not meet
Your new found needs
     G       F
for mis - behaving.

                 DM
Why would you say sorry
                 EM
Oh, why would you
                 DM
Why would you say sorry
                 EM
Oh, why would you

**Ad-lib and Repeat This Section Until Fade**



Guitar Two (Electric)

Introduction:

   BM                     AM        BM
e|--9-----------9----------7-----------7-----------------------------------|
B|--7-----------7----------5-------------7---------------------------------|
G|--7-----------7----------5---------------7-------------------------------|
D|-----------------------------------9-------------------------------------|
A|-------------------------------------------------------------------------|
E|-------------------------------------------------------------------------|


Verse:

     BM                                    AM
e|----9----7-----5------9-----7-----5-------7-----5-----3------------------|
B|----7-----------------7-------------------5------------------------------|
G|----7-----------------7-------------------5------------------------------|
D|-------------------------------------------------------------------------|
A|-------------------------------------------------------------------------|
E|-------------------------------------------------------------------------|



Papercuts from the...
holes in hearts...
e|-------------------------------------------------------------------------|
B|-------------------------------------------------------------------------|
G|-------------------------------------------------------------------------|
D|---7--9----10-----12-----14------14-14-14--14/17-17-15-15/7--7--9--10----|
A|-------------------------------------------------------------------------|
E|-------------------------------------------------------------------------|

new found needs...
e|-------------------------------------------------------------------------|
B|-------------------------------------------------------------------------|
G|-------------------------------------------------------------------------|
D|--12-----14---14-14-14---14/17--17-15--15-15-----------------------------|
A|-------------------------------------------------------------------------|
E|-------------------------------------------------------------------------|


          Why Would You...                 ...sorry
e|----12----------------------------------------10-------------------------|
B|----12----------------------------------------10-------------------------|
G|----12----------------------------------------10-------------------------|
D|----14----------------------------------------12-------------------------|
A|----14----------------------------------------12-------------------------|
E|----12----------------------------------------10-------------------------|


       A5      F5       A5       F5
e|-------------------------------------------------------------------------|
B|-------------------------------------------------------------------------|
G|-------------------------------------------------------------------------|
D|-------------------------------------------------------------------------|
A|-----12----8---8-8-8--12---8--8-8-8--------------------------------------|
E|-------------------------------------------------------------------------|

Solo:

      BM                           AM                BM
e|-------------------------------------------------------------------------|
B|---------------------------------12--------------------------(12)--------|
G|--------------------11-12---14--------12---14---11---(11)(12)------------|
D|---9----12--11----9--------------------------------------------------(X2)|
A|-------------------------------------------------------------------------|
E|-------------------------------------------------------------------------|

This Is A Really Amazing Song and Extremely Fun and easy to play :)
Comments appreciated :)


            
            
Suggest correction
Creating personal tab
Creating personal tab
You can edit any tab online and save it as your Personal.

You can edit, replace or remove any tab part or add personal notes – all changes will be seen only by you.

Personal tabs can be accessed anytime from any device, even offline.
Learn more »
Give kudos to tab author, rate the tab!
1 2 3 4 5
comments
print report bad tab
guest
You may want to rate the tab now too:
select rating
Wanna post a correction for this tab? Suggest correction