Oops, an error
Loading. Please wait.

Paris Summer tab

version 1
version 1

Whole song

Interactive

4,998 views 1 this week
no commentswrite comment
1 2 3 4 5
x 3
add to favorites
×
Save as Personal and add changes to this tab that will be seen only by you. Learn more ›
×
You can save this tab as Personal to edit and correct it or add notes. All changes will be seen only by you. Learn more »
launch autoscroll
font size
0
reset
how to read this tab
guitar tuner
edit
Autoscroll
slow
fast
+/-
esc
set tempo
stop
Author
Difficulty
Paris Summer Cover- The Last Shadow Puppets

Cover of Nancy Sinatra the Last Shadow Puppets did on their tour, including BBC Electric
The tab isn’t perfect but it gives u an idea. The chords are definitely correct. Any
email me: joetp_10@msn.com

Verse Chords

Am                                                              Dm
Walking down some cobbled street..etc.
Em                                  Am
We lay and let our hearts take wings and fly across the Seine…..etc.


The Main Riff that is played between the Am and Dm chords- and straight after the chorus..
|-----------------------|
|-----------------------|
|-----------------------|
|-----------------------|
|---------5-----------5-|
|--5-7-8----8-7-5-------|

The Riff played During the Em  Am progression (after Am)

|---------------|
|---------------|
|---------------|
|---------------|
|--5--7--5------|
|-----------8-7-|

Chorus Chords
Am     Dm              Am
Oh    Oh  the Paris Summer

Chorus Riff
Am
|----------------|
|----------------|
|----------------|
|----------------|
|------------7~--|
|--5-5-5-7-8-----|

Dm                      Am
|---------------------------------------|
|---------------------------------------|
|---------------------------------------|
|------------7--------------------------|
|--5-5-5-7-8-------10-8-8-7----8-8-8--7-|
|---------------------------------------|

Thats pretty much it. Just repeat for different parts of the song. Hope you like it. 
by Jparkes.

            
            
Suggest correction
Creating personal tab
Creating personal tab
You can edit any tab online and save it as your Personal.

You can edit, replace or remove any tab part or add personal notes – all changes will be seen only by you.

Personal tabs can be accessed anytime from any device, even offline.
Learn more »
Give kudos to tab author, rate the tab!
1 2 3 4 5
comments
print report bad tab
guest
You may want to rate the tab now too:
select rating
Wanna post a correction for this tab? Suggest correction