Oops, an error
Loading. Please wait.

Separate And Ever Deadly bass

2,446 views 3 this week
3 commentsread comments
1 2 3 4 5
x 3
add to favorites
×
Save as Personal and add changes to this tab that will be seen only by you. Learn more ›
×
You can save this tab as Personal to edit and correct it or add notes. All changes will be seen only by you. Learn more »
launch autoscroll
font size
0
reset
guitar tuner
edit
Autoscroll
slow
fast
+/-
esc
set tempo
stop
Author
Difficulty
Artist: The Last Shadow Puppets
Song: Separate And Ever Deadly
Tabbed By: PimvdMoosdijk


0:00 - 0:12

G----------------------------------------------|
D----------------------------------------------|
A----------------------------------------------|
E---7-7-7-757--2-3-2---------------------------|

Little variation the 2nd time

G------------------------------------------------|
D------------------------------------------------|
A------------------------------------------------|
E---7-7-7-7757--2-3-2---0000-77-99-1010-99-77-99-|

G----------------------------------------------|
D----------------------------------------------|
A----------------------------------------------|
E---7-7-7-757-2-3------------------------------|


0:13-0:28

G----------------------------------------------|
D----------------------------------------------|
A----------------------------------------------|
E---7-7-7-757--2-3-2---------------------------|

G------------------------------------------------|
D------------------------------------------------|
A------------------------------------------------|
E---7-7-7-7757--2-3-2---0000-77-99-1010-99-77-99-|

G----------------------------------------------|
D----------------------------------------------|
A----------------------------------------------|
E---7-7-7-757--2-3-2---0000-77-99-1010-99-77---|

0:29-1:04

G----------------------------------------------|
D----------------------------------------------|
A---2-222-5-4---------2------------------------|  x4
E---------------3-333---2----------------------|

G----------------------------------------------|
D----------------------------------------------|
A---2222----------22---------------------------|  x4
E-------0000-3333---22-------------------------|


G----------------------------------------------|
D----------------------------------------------|
A---2~-22--2~22--2~22--2~22--02----------------|
E----------------------------------------------|


1:05-1:19

G----------------------------------------------|
D----------------------------------------------|
A----------------------------------------------|
E---7-7-7-757--2-3-2---------------------------|

G------------------------------------------------|
D------------------------------------------------|
A------------------------------------------------|
E---7-7-7-7757--2-3-2---0000-77-99-1010-99-77-99-|

G----------------------------------------------|
D----------------------------------------------|
A----------------------------------------------|
E---7-7-7-757-2-3------------------------------|


1:20-1:33

G----------------------------------------------|
D----------------------------------------------|
A-------7-9-10-9-------------------------------|  x4
E---7-7----------------------------------------|

G----------------------------------------------|
D----------------------------------------------|
A---7777-5555-4444-----------------------------|
E------------------5555------------------------|

G----------------------------------------------|
D----------------------------------------------|
A-------7-9-10-9-------------------------------|  x2
E---7-7----------------------------------------|

G----------------------------------------------|
D----------------------------------------------|
A---7777-5555-4--------------------------------|
E----------------------------------------------|


1:35-2:00

G-------------------------------------------------|
D-------------------------------------------------|
A---2222-5-4---------2----------------------------|  x4
E---------------3333---2--------------------------|

G----------------------------------------------|
D----------------------------------------------|
A---2~~~-----------02--------------------------|
E----------------------------------------------|


2:01-2:37

G----------------------------------------------|
D----------------------------------------------|
A---2222----------22---------------------------|  x8
E-------0000-3333---22-------------------------|

G----------------------------------------------|
D----------------------------------------------|
A---2~-22--2~22--2~22--2~22--02----------------|
E----------------------------------------------|


I think this is about correct, if not, please put the corrections in the comment box.

Rate please!

            
            
Suggest correction
Creating personal tab
Creating personal tab
You can edit any tab online and save it as your Personal.

You can edit, replace or remove any tab part or add personal notes – all changes will be seen only by you.

Personal tabs can be accessed anytime from any device, even offline.
Learn more »
Give kudos to tab author, rate the tab!
1 2 3 4 5
comments
print report bad tab
3 comments total.
0 reply
max_teh_player 10 Oct 19, 2009 09:31 AM

Thanks for the tabs! I believe the 2nd line to be:

G------------------------------------------------|
D------------------------------------------------|
A------------------------------------------------|
E---7-7-7-7757--2-3-2----0-7-9-10-12-10-9-10-----|

0 reply
max_teh_player 10 Oct 19, 2009 09:41 AM

Umm... :)
And the 2nd line in the section 0:29-1:04 has different tones as well I believe - I start to think I might have a different version. I'm listening to the album version.

Anyway, I suggest:

G----------------------------------------------|
D-------2222-----------------------------------|
A---2222----------22---------------------------| x4
E------------3333------------------------------|

... which is just an octave different, but sounds quite different too.

0 reply
max_teh_player 10 Oct 19, 2009 10:02 AM

I apologise for making a bit of a mess - not sure how this forum is moderated. I have some additional comments, so I figured it would be better to just post the whole tabs I propose as one.

I believe the tones to be correct - not 100% about the rhythm. Might be a double note where I just wrote one, or the other way around :)

Thanks for PimvdMoosdijk who did the hard work of finding out from scratch.
(Originally tabbed By: PimvdMoosdijk)

0:00 - 0:12

G----------------------------------------------|
D----------------------------------------------|
A----------------------------------------------|
E---7-7-7-757--2-3-2---------------------------|

Little variation the 2nd time

G------------------------------------------------|
D------------------------------------------------|
A------------------------------------------------|
E---7-7-7-7757--2-3-2-------0-7-9-10-12-10-9-10--|

G----------------------------------------------|
D----------------------------------------------|
A----------------------------------------------|
E---7-7-7-757-2-3------------------------------|

0:13-0:28

G----------------------------------------------|
D----------------------------------------------|
A----------------------------------------------|
E---7-7-7-757--2-3-2---------------------------|

G------------------------------------------------|
D------------------------------------------------|
A------------------------------------------------|
E---7-7-7-7757--2-3-2-------0-7-9-10-12-10-9-10--|

G----------------------------------------------|
D----------------------------------------------|
A----------------------------------------------|
E---7-7-7-7757--2-3-2-------0-7-9-10-12-10-9---|

0:29-1:04

G----------------------------------------------|
D----------------------------------------------|
A---2-222-5-4---------2------------------------| x4
E---------------3-333---2----------------------|

G----------------------------------------------|
D-------2222-----------------------------------|
A---2222----------22---------------------------| x4
E------------3333---22-------------------------|

G----------------------------------------------|
D----------------------------------------------|
A---2~-22--2~22--2~22--2~22--02----------------|
E----------------------------------------------|

1:05-1:19

G----------------------------------------------|
D----------------------------------------------|
A----------------------------------------------|
E---7-7-7-757--2-3-2---------------------------|

G------------------------------------------------|
D------------------------------------------------|
A------------------------------------------------|
E---7-7-7-7757--2-3-2-------0-7-9-10-12-10-9-10--|

G----------------------------------------------|
D----------------------------------------------|
A----------------------------------------------|
E---7-7-7-757-2-3------------------------------|

1:20-1:33

G----------------------------------------------|
D----------------------------------------------|
A------------9-10-9----------------------------| x4
E---7---9/10-----------------------------------|

G----------------------------------------------|
D----------------------------------------------|
A---7777-5555-4444-----------------------------|
E------------------3333------------------------|

G----------------------------------------------|
D----------------------------------------------|
A------------9-10-9----------------------------| x2
E---7-7-9/10-----------------------------------|

G----------------------------------------------|
D----------------------------------------------|
A---7777-5555-4--------------------------------|
E----------------------------------------------|

1:35-2:00

G-------------------------------------------------|
D-------------------------------------------------|
A---2222-5-4---------2----------------------------| x4
E---------------3333---2--------------------------|

G----------------------------------------------|
D----------------------------------------------|
A---2~~~-----------02--------------------------|
E----------------------------------------------|

2:01-2:37

G----------------------------------------------|
D-------2222-----------------------------------|
A---2222----------22---------------------------| x8
E------------3333---22-------------------------|

G----------------------------------------------|
D----------------------------------------------|
A---2~-22--2~22--2~22--2~22--02----------------|
E----------------------------------------------|

guest
You may want to rate the tab now too:
select rating
Wanna post a correction for this tab? Suggest correction