Oops, an error
Loading. Please wait.

The Age Of The Understatement intro tab

version 1
version 1

Intro

Whole song

Interactive

7,285 views 1 this week
4 commentsread comments
1 2 3 4 5
1 last vote to show rating
add to favorites
×
Save as Personal and add changes to this tab that will be seen only by you. Learn more ›
×
You can save this tab as Personal to edit and correct it or add notes. All changes will be seen only by you. Learn more »
launch autoscroll
font size
0
reset
how to read this tab
guitar tuner
edit
Autoscroll
slow
fast
+/-
esc
set tempo
stop
Tabbed by Evel

this is the little riff thingy that you hear several times in the song, I found out that 
not tabbed yet, so I thought I would give it a try... I'm not sure if it's completely right

--------------------------------------------------------------------------|
-------------------9h10-----9h10p9----------------------------------------|
-------10-7------------------------10-------------------------------------|
---9------------------------------------7-9---------(15~)-----------------|
--------------------------------------------------------------------------|
--------------------------------------------------------------------------|

Enjoy!

            
            
Suggest correction
Creating personal tab
Creating personal tab
You can edit any tab online and save it as your Personal.

You can edit, replace or remove any tab part or add personal notes – all changes will be seen only by you.

Personal tabs can be accessed anytime from any device, even offline.
Learn more »
Give kudos to tab author, rate the tab!
1 2 3 4 5
comments
print report bad tab
4 comments total. Showing first comments.
0 reply
chris909090 10 May 08, 2008 11:38 AM

think the first 3 notes may be:

----------
----------
-----11-7-
--9-------
----------
----------

rest seems fine though

+1 reply
BassOdity 15 May 23, 2009 11:44 AM

when they play it in the live version he plays.
play first part the part

E-----------------------------10--
A-2~~-4~~-5~~-7-5-7/9~~-7/9~~----7
D---------------------------------
G---------------------------------
B---------------------------------
e---------------------------------

E---------------------------------------------
A-2~~-4~~-5~~-7-5-7/9~~-7/9~~~~~--------------
D---------------------------------------------
G--------------------------------2/4~~~~~~~~~~
B---------------------------------------------
e---------------------------------------------

0 reply
BassOdity 15 May 23, 2009 11:45 AM

ignore "play first part the part"

guest
Wanna post a correction for this tab? Suggest correction