Oops, an error
Loading. Please wait.

Ester intro tab

2,245 views 1 this week
2 commentsread comments
1 2 3 4 5
x 4
add to favorites
×
Save as Personal and add changes to this tab that will be seen only by you. Learn more ›
×
You can save this tab as Personal to edit and correct it or add notes. All changes will be seen only by you. Learn more »
launch autoscroll
font size
0
reset
how to read this tab
guitar tuner
edit
Autoscroll
slow
fast
+/-
esc
set tempo
stop
Author
Difficulty
-------------------------------------------------------------------------------
                             ESTER - The Lautsprechers
-------------------------------------------------------------------------------
Tabbed by: rosselders
E-mail:rwelders15@bellsouth.net

Tuning:Standard

e|---------------5~---------------------3~-------------5~------------------------------------------|
B|-------------------------------------------------------------------------------------------------|
G|---2---------------------------------------------------------------------------------------------|
D|-----3--2--0--------1/2--3--2--0-----------------0--------1/2--3--5--3--5--3--5/7--5--3--2--0----|
A|----------------------------------3--------0--3--------------------------------------------------|
E|-------------------------------------------------------------------------------------------------|

e|--5~---------------------8~-------------5~------------------------------------|
B|------------------------------------------------------------------------------|
G|----------------------------------------------------------------------5-------|
D|-------1/2--3--2--0-----------------0--------1/2--3--5--3--5--3--5/7-----7----|
A|---------------------3--------0--3--------------------------------------------|
E|------------------------------------------------------------------------------|

e|----------------------------------------------------------------|
B|----------------------------------------------------------------|
G|--------------------------------2-------------------------------|
D|--2--3--2--0-----0--2--3--2--0-----3--2--3--2--0-----0--2--0----|
A|--------------3-----------------------------------3-------------|
E|----------------------------------------------------------------|

e|------------------------------------------------------------------------------------|
B|------------------------------------------------------------------------------------|
G|-------------------------2--2-------------------------------------------------------|
D|--0--2--3--2--3--3/5-----------5--3--2--3--3--3--5--5--5--6--6--6--8--8--8-----0----|
A|----------------------3-----------------------------------------------------0-------|
E|------------------------------------------------------------------------------------|
                                                                               (Repeat)
         
************************************                                                                

YouTube link to the song: http://youtu.be/SKslGWSmUT8


I'll post the bass tabs and chords to the song in the future. Until then, enjoy! 
 

************************************

| /   slide up
| \   slide down
| h   hammer-on
| p   pull-off
| ~   vibrato
| +   harmonic
| x   Mute note
| b   Bend
| pb  Pre-bend
| br  Bend release
| pbr Pre-bend release
| brb Bend release bend

************************************

            
            
Suggest correction
Creating personal tab
Creating personal tab
You can edit any tab online and save it as your Personal.

You can edit, replace or remove any tab part or add personal notes – all changes will be seen only by you.

Personal tabs can be accessed anytime from any device, even offline.
Learn more »
comments
print report bad tab
2 comments total.
-1 reply
chrisplokami 10 Jan 19, 2016 02:39 AM

What are the chords fot the guitar after the intro ?

0 reply
tessa.jacobs97 10 Mar 13, 2016 07:43 AM

I think the key is D minor, and the chords are Dm and C.

guest
You may want to rate the tab now too:
select rating
Wanna post a correction for this tab? Suggest correction