Oops, an error
Loading. Please wait.

Dont Look Back Into The Sun bass

version 1
version 1

Whole song

Interactive

12,295 views 3 this week
4 commentsread comments
1 2 3 4 5
x 6
add to favorites
×
Save as Personal and add changes to this tab that will be seen only by you. Learn more ›
×
You can save this tab as Personal to edit and correct it or add notes. All changes will be seen only by you. Learn more »
launch autoscroll
font size
0
reset
guitar tuner
edit
Autoscroll
slow
fast
+/-
esc
set tempo
stop
Author
Difficulty
Intro
|----------------------------------|
|--------------------------5-------|
|------5---7---5---3---5------5----|
|-3--------------------------------|

Verse
|----------------------------------------------------------------------------------|
|-------------------------------------------------------------5-5-5-5--------------|
|-----------5-5-5-5---7-7-7-7---5-5-5-5---3-3-3-3---5-5-5-5-------------5-5-5-5----|
|-3-3-3-3--------------------------------------------------------------------------|

Chorus
|-5-5-5-5-5-5-5-5-4-0-0-0-0-0-0-0-0-5-5-5-5-5-5-5-5-7-----|
|---------------------------------------------------------|
|---------------------------------------------------------|
|---------------------------------------------------------|

End on 
|---0---|
|-------|
|-------|
|-------|

            
            
Suggest correction
Creating personal tab
Creating personal tab
You can edit any tab online and save it as your Personal.

You can edit, replace or remove any tab part or add personal notes – all changes will be seen only by you.

Personal tabs can be accessed anytime from any device, even offline.
Learn more »
comments
print report bad tab
4 comments total. Showing first comments.
0 reply
Sammy2Gunz 10 Feb 26, 2006 03:17 AM

It's well tab !! but you need to give the order in which they are played!

0 reply
BrookyMCR 31 Aug 30, 2007 12:12 PM

Intro x 1
Verse x 3
Chorus x 1
Verse x 2
Chorus x 1
Verse x 2
Chorus x 1
Verse x 4
End


5 stars, great tab :)

0 reply
-x-emily-x- 10 Nov 16, 2007 01:25 PM

tabs great, thanks x

guest
You may want to rate the tab now too:
select rating
Wanna post a correction for this tab? Suggest correction