Oops, an error
Loading. Please wait.

Radio America tab

6,801 views 1 this week
1 commentread comment
1 2 3 4 5
x 5
add to favorites
×
Save as Personal and add changes to this tab that will be seen only by you. Learn more ›
×
You can save this tab as Personal to edit and correct it or add notes. All changes will be seen only by you. Learn more »
launch autoscroll
font size
0
reset
how to read this tab
guitar tuner
edit
Autoscroll
slow
fast
+/-
esc
set tempo
stop
Author
Some Chords:

D - xx0232
A7 - xx(0)223
B7 - x21202
Em - 022000
F#m - 422444
G - 355433
A7'  - xx7989 (this is what is played on the track, but Dm7 (xx0222) sounds alright if 
too much of a stretch, but emphasis on the alright)

Main Riff: (at the very beginning it is essentially this, with a tiny intro of B-2s3--D-0-

--------3-0---------3----------------------------------------------|
--2---2-----3-2---2---2--------------------------------------------|
----3-----------2-------2------------------------------------------|
-------------------------------------------------------------------|
-------------------------------------------------------------------|
-------------------------------------------------------------------|

Bridge bit:

-------------------------------------------------------------------|
-------------------------------------------------------------------|
------------2-3-4-----------2-3-4--7---7-7-7-7b9-------------------|
--2-3-4---------------2-3-4----------9-----------------------------|
-------------------------------------------------------------------|
-------------------------------------------------------------------|

Chords: Verse  -  D  A7

               Chorus  -  D  B7  Em  F#m  G  F#m  E  A7'  D

               Bridge  -  Em (7th fret)  (barely audible but possibly G (10th fret)?)  D 
fret)  C# (9) C (8) B (7)  G  A  (5) D

               Outtro  -  D  Dm7  D  D


That's the bare bones of it

            
            
Suggest correction
Creating personal tab
Creating personal tab
You can edit any tab online and save it as your Personal.

You can edit, replace or remove any tab part or add personal notes – all changes will be seen only by you.

Personal tabs can be accessed anytime from any device, even offline.
Learn more »
comments
print report bad tab
1 comment total.
-1 reply
samgladding1 10 May 20, 2016 10:12 PM

e|-------2-0---------3-0-------------------------------|
b|-3---3-----3-2---2-----2-----------------------------|
g|---2-----------0-------------------------------------|
d|-----------------------------------------------------|
a|-----------------------------------------------------|
E|-----------------------------------------------------|

play mine with the music. play yours with the music. you're a moron.

guest
You may want to rate the tab now too:
select rating
Wanna post a correction for this tab? Suggest correction