Oops, an error
Loading. Please wait.

What A Waster tab

version 2
version 2

Whole song

Interactive

12,655 views 3 this week
2 commentsread comments
1 2 3 4 5
x 6
add to favorites
×
Save as Personal and add changes to this tab that will be seen only by you. Learn more ›
×
You can save this tab as Personal to edit and correct it or add notes. All changes will be seen only by you. Learn more »
launch autoscroll
font size
0
reset
how to read this tab
guitar tuner
edit
Autoscroll
slow
fast
+/-
esc
set tempo
stop
Author
Thought I'd try tabbing this amazing song, try not to be to harsh it's my first 
tab, but if you have to than ...

What a Waster 

The Intro 

e---------3-2-|-----------------|-00-0-0-|
b----1-0--1-1-|-----------------|-11-0-1-|
G-------2-2-2-|-----------------|-22-0-2-|
d--0------2---|-3333-x2-5555-x2-|-22-0-2-|
a-0-----------|-3333----5555----|-00-0-0-|
e-------------|-1111----3333----|-00-3-0-|


Verse
Am             D7
What a waster, what a f****** waster
G                             Em
You p****** it all up the wall
                            Am 
Round the corner where they chased her
                     D7                 G
There's tears coming out from everywhere
                 Em 
The city's hard, the city's fair
Am              D7  
Get back inside you've got nothing on
   G                        Em
No your mind is bleedin own you two bob c***
|--------|
|-11-0-1-|
|-22-0-2-|
|-22-0-2-|
|-00-0-0-|
|-00-3-0-|



e---------3-2-|-2-2-|------0--------|
b----1-0--1-1-|-3-3-|------0--------|
G-------2-2-2-|-4-4-|------0--------|
d--0------2---|-----|----2----------|  X3  is played during all verse except 
a-0-----------|-----|----2----------|      the first 
e-------------|-----|--0------0-3-0-|

Verse
When she wakes up in the morning
She writes down all her dreams
Reads like the book of revelations
Or the Beano or the unabridged Ulysses
Oh I really wanna know
So tell me, where does all the money go
where does all the money go
Straight, straight up her 

Nose...
|---------|---------------|-0---0----|-0--------------|-------------|----|
|---------|---------------|-1---1----|-1--------------|-------------|----|
|-4-4-4-4-|-4-3-3-3-3-1-1-|-2---2----|-2--1-1-3-3-3-3-|-4--4--4-4-4-|-4--|
|-5-5-5-5-|-5-4-4-3-3-2-2-|-2---2----|-2--2-2-3-3-4-4-|-5--5--5-5-5-|-5--|
|-5-5-5-5-|-5-4-4-3-3-2-2-|-0---0----|-0--2-2-3-3-4-4-|-5--5--5-5-5-|-5--|
|-3-3-3-3-|-3-2-2-1-1-0-0-|----------|----0-0-1-1-2-2-|-3--3--3-3-3-|-3--|

F                           G
And I never really liked it any way
F                    G 
So much preferred it the other way yeah

|--------|
|-11-0-1-|
|-22-0-2-|
|-22-0-2-|
|-00-0-0-|
|-00-3-0-|

Verse
Am           D7                 G
What a d**** what a f***** d*****
                      Em ...
Talking like a m****, walking like a s*****
I was laying in bed paying my rent
Knocking on the door for something
That she lent her brother
Meanwhile from under the covers she says
Save me from tomorrow now, save me from tomorrow now,
Oh no, Oh no not 
Me....
|---------|---------------|-0---0----|-0--------------|-------------|----|
|---------|---------------|-1---1----|-1--------------|-------------|----|
|-4-4-4-4-|-4-3-3-3-3-1-1-|-2---2----|-2--1-1-3-3-3-3-|-4--4--4-4-4-|-4--|
|-5-5-5-5-|-5-4-4-3-3-2-2-|-2---2----|-2--2-2-3-3-4-4-|-5--5--5-5-5-|-5--|
|-5-5-5-5-|-5-4-4-3-3-2-2-|-0---0----|-0--2-2-3-3-4-4-|-5--5--5-5-5-|-5--|
|-3-3-3-3-|-3-2-2-1-1-0-0-|----------|----0-0-1-1-2-2-|-3--3--3-3-3-|-3--|

F                           G
And I never really liked it any way
F                    G 
So much preferred it the other way yeah
|--------|
|-11-0-1-|
|-22-0-2-|
|-22-0-2-|
|-00-0-0-|
|-00-3-0-|

F                           G
And I never really liked it any way
F                    G 
So much preferred it the other way yeah

|--------|
|-11-0-1-|
|-22-0-2-|
|-22-0-2-|
|-00-0-0-|
|-00-3-0-|

Break
e----------3-2-|-2-------|------0--|
b----1-0---1-1-|-3--3--0-|------0--|
G--------2-2-2-|-4-------|------0--| Repeat
d--0-------2---|---------|---2-----|
a-0------------|---------|---2-----|
e--------------|---------|-0-------|

Than Play the intro 

Verse
Am             D7
What a waster, what a f****** waster
G                             Em
You p***** it all up the wall
                            Am 
Round the corner where they chased her
                     D7                 G
There's tears coming out from everywhere
                 Em 
The city's hard, the city's fair
Am              D7  
Get back inside you've got nothing on
   G                        Em
No your mind is bleedin own you two bob c***

Outro 

Am Am D D G G C C

Am Am D D G G C C 

Am   

Any Suggestions, Corrections or death threats email

Thomascrusoe@yahoo.co.uk

            
            
Suggest correction
Creating personal tab
Creating personal tab
You can edit any tab online and save it as your Personal.

You can edit, replace or remove any tab part or add personal notes – all changes will be seen only by you.

Personal tabs can be accessed anytime from any device, even offline.
Learn more »
comments
print report bad tab
2 comments total.
0 reply
henner 73 Jul 10, 2009 02:49 PM

this is the one

0 reply
ed182 895 Oct 11, 2010 11:44 AM

HA. div and divvy aren't swearwords...

guest
You may want to rate the tab now too:
select rating
Wanna post a correction for this tab? Suggest correction