Oops, an error
Loading. Please wait.
We have an official What Katie Did tab made by UG professional guitarists. Check out the tab »
×
2,385 views 6 this week
no commentswrite comment
1 2 3 4 5
1 last vote to show rating
add to favorites
×
Save as Personal and add changes to this tab that will be seen only by you. Learn more ›
×
You can save this tab as Personal to edit and correct it or add notes. All changes will be seen only by you. Learn more »
launch autoscroll
font size
0
reset
guitar tuner
edit
Autoscroll
slow
fast
+/-
esc
set tempo
stop
Author
Artist: The Libertines
Song: What Katie Did

I know there is at least one other tab available but here is how I play the bass part of
What Katie Did.
Seb

There is no bass for the first bit until the vocals come in
Intro (called chorus)
G|-----------------------------------------------------------------------|
D|--------------------4--------------------------------------------------|
A|12--12--12-11-11---4-4-4-5-5-5-5-8-8-8-8-------------------------------|x2
E|--12--12--9--9--9-2----------------------------------------------------|

Verse / Main riff
G|-----------------------------------------------------------------------|
D|-----------------------4-----------------------------------------------|
A|12--12--12-11--11--11-4-4-5-5-5-5-8-8-8-8------------------------------|x2
E|--12--12-----12--12--2-------------------------------------------------|

Pre-chorus
G|-----------------------------------------------------------------------|
D|-----------------------------------------------------------------------|
A|12--12-11-10-9-9-----7--12--12-7-9-11----------------------------------|x1
E|--12----------9-9-7-------12-------------------------------------------|

Gtr solo / Main riff
G|-----------------------------------------------------------------------|
D|-----------------------4-----------------------------------------------|
A|12--12--12-11--11--11-4-4-5-5-5-5-8-8-8-8------------------------------|x1
E|--12--12-----12--12--2-------------------------------------------------|

Chorus /intro riff
G|-----------------------------------------------------------------------|
D|--------------------4--------------------------------------------------|
A|12--12--12-11-11---4-4-4-5-5-5-5-8-8-8-8-------------------------------|x1
E|--12--12--9--9--9-2----------------------------------------------------|

Verse / Main riff
G|-----------------------------------------------------------------------|
D|-----------------------4-----------------------------------------------|
A|12--12--12-11--11--11-4-4-5-5-5-5-8-8-8-8------------------------------|x2
E|--12--12-----12--12--2-------------------------------------------------|

Pre-chorus
G|-----------------------------------------------------------------------|
D|-----------------------------------------------------------------------|
A|12--12-11-10-9-9-----7--12--12-7-9-11----------------------------------|x1
E|--12----------9-9-7-------12-------------------------------------------|

Free time
G|-----------------------------------------------------------------------|
D|-----------------------------------------------------------------------|
A|12------------9------7--12---------------------------------------------|
E|-----------------7-----------------------------------------------------|
rest

Chorus / main riff
G|-----------------------------------------------------------------------|
D|-----------------------4-----------------------------------------------|
A|12--12--12-11--11--11-4-4-5-5-5-5-8-8-8-8------------------------------|x5
E|--12--12-----12--12--2-------------------------------------------------|

Free time / outro (repeat the note on fret 12 of the A string)
G|-----------------------------------------------------------------------|
D|-----------------------------------------------------------------------|
A|12------------9------7--12-12-12-12-12-12-12-12-12-12-12.......--------|
E|-----------------7-----------------------------------------------------|

So thats it. Enjoy this great song by my favourite band. Goodbye

END

            
            
Suggest correction
Creating personal tab
Creating personal tab
You can edit any tab online and save it as your Personal.

You can edit, replace or remove any tab part or add personal notes – all changes will be seen only by you.

Personal tabs can be accessed anytime from any device, even offline.
Learn more »
Give kudos to tab author, rate the tab!
1 2 3 4 5
comments
print report bad tab
guest
You may want to rate the tab now too:
select rating
Wanna post a correction for this tab? Suggest correction