Oops, an error
Loading. Please wait.

Youre My Waterloo tab

version 2
version 2

Whole song

1,090 views 9 this week
no commentswrite comment
1 2 3 4 5
x 5
add to favorites
×
Save as Personal and add changes to this tab that will be seen only by you. Learn more ›
×
You can save this tab as Personal to edit and correct it or add notes. All changes will be seen only by you. Learn more »
launch autoscroll
font size
0
reset
how to read this tab
guitar tuner
edit
Autoscroll
slow
fast
+/-
esc
set tempo
stop
Author
Difficulty
There were a lot of incomplete tabs for this song so I made a complete one :-).

Riff 1

e|--0--1--3--1--0-----------0------------------------1--0--|
B|-----------------3--1--3-----3--1--0--0--1p0-------------|
G|----------------------------------------------2----------|
D|---------------------------------------------------------|
A|---------------------------------------------------------|
E|---------------------------------------------------------|

e|--0--1--3--1--0--3--5--7--8--7--7--8p7--5----1--0--------|
B|---------------------------------------------------------|
G|---------------------------------------------------------|
D|---------------------------------------------------------|
A|---------------------------------------------------------|
E|---------------------------------------------------------|

Riff 2

e |-----------------------------------|
B |--2--2--3--2--3--5--7--5--5--------|
G |-----------------------------------| x3
D |-----------------------------------| 
A |-----------------------------------|
E |-----------------------------------|

e |--------------------2--4--5--7--8--|  
B |--2--2--3--2--3--5-----------------|
G |-----------------------------------|
D |-----------------------------------|
A |-----------------------------------|
E |-----------------------------------|

Solo

e|---12b13--12p10------10---------10--12--15--12--10-12-12----------------|
B|------------------13----13-12------------------------------11--10--8~---|
G|------------------------------------------------------------------------|
D|------------------------------------------------------------------------|
A|------------------------------------------------------------------------|
E|------------------------------------------------------------------------|

e|---------------------------------------|
B|--------8--10--8--10b12--8-------------|
G|--9~-9-----------------------10----9---|
D|---------------------------------------|
A|---------------------------------------|
E|---------------------------------------|

e|---12b13--12p10----10--------10--12--15--12-----12-15--17--15--12------|
B|----------------13----13-12------------------15------------------------|
G|-----------------------------------------------------------------------|
D|-----------------------------------------------------------------------|
A|-----------------------------------------------------------------------|
E|-----------------------------------------------------------------------|

e|-----------------------------------------|
B|-10-10-10-11-10-8--------8---------------|
G|-------------------9--9------10----9-----|
D|-----------------------------------------|
A|-----------------------------------------|
E|-----------------------------------------|

Intro: Riff 1 (carries on throughout song)

C                         Em
You'll never fumigate the demons
Am                     F Em
No matter how much you smoke
C                    
Just say you love me
Em
For three good reasons
Am                      F Em
And I'll throw you the rope

C                                     Em
You don't need it, 'cause you are the survivor
Am                F Em
Of more than one life
C                   Em
And you're the only lover I had
Am                    F Em
Who ever slept with a knife

C                   Em               
But you're not Judy Garland
             Am                     F     Em
Oh just like me you've never really had a home (of your own)
C                Em
But I'm not Tony Hancock baby
Am
Until the dawn
F               Em
We'll stone the crows
F               Em
We'll stone the crows

Riff 2

C                            Em
And you see I've brought you flowers
Am                     F       Em
All collected from the Old Vic Stage
C                               Em
Well I've been sitting here for hours, baby
Am                       F          Em
Just chasing these words across the page

C                    Em
Cause you're my Waterloo
Am                F     Em
Well I'll be your Gypsy Lane
C                        Em
I'm so glad we know just what to do
Am          F        Em
And exactly who's to blame

C                  Em
And you're my Waterloo
Am           F       Em
I'll be your Stanley Park
C                             Em
Well I'm so glad we know just what to do
Am                F         Em
And no one's left stumbling around
F        Em
Fumbling around
F        Em
Tumbling around

In the dark

Riff 2

Always in the dark

Solo

C              Em
You're my Waterloo
Am           F    Em
I'll be your Calvary
C                             Em
Well I'm so glad we know just what to do
Am            F         E
And everyone's gonna be happy
F                   E
Everyone's gonna be happy
F                   E
Everyone's gonna be happy
       C
But of course

            
            
Suggest correction
Creating personal tab
Creating personal tab
You can edit any tab online and save it as your Personal.

You can edit, replace or remove any tab part or add personal notes – all changes will be seen only by you.

Personal tabs can be accessed anytime from any device, even offline.
Learn more »
comments
print report bad tab
guest
You may want to rate the tab now too:
select rating
Wanna post a correction for this tab? Suggest correction