Oops, an error
Loading. Please wait.

Lucky You tab

4,029 views 1 this week
1 commentread comment
1 2 3 4 5
x 5
add to favorites
×
Save as Personal and add changes to this tab that will be seen only by you. Learn more ›
×
You can save this tab as Personal to edit and correct it or add notes. All changes will be seen only by you. Learn more »
launch autoscroll
font size
0
reset
how to read this tab
guitar tuner
edit
Autoscroll
slow
fast
+/-
esc
set tempo
stop
#----------------------------------PLEASE NOTE---------------------------------#
#This file is the author's own work and represents their interpretation of the #
#song. You may only use this file for private study, scholarship, or research. #
#------------------------------------------------------------------------------#
#

Date: Sun, 07 Dec 1997 15:35:15 +0000
From: nigel and ruth galloway 
Subject: Lightning Seeds, Lucky You

Lightning Seeds - Lucky You

Track 2 on the Cool 3rd Album
'Jollification'

INTRO: Em A  Em A  Em  A  Em A  G

VERSE 1:

Em                Am7   D
You're lying again
                                     G              G/F#  Em
you say you don't but then you do
                   Am7   D
I'm trying again
                    G    G/F#           Em
To build a wall around your heart
                        Am7          D    G
then break it through, to you
        G/F#     Em
You make it happen

BRIDGE:

                           Am7            G
Ooooh Oooooh Waay Ooooh
                                    Am7                            G
Ooooh Oooooh Waay Ooooh ooh ooh waay ooh


CHORUS:

C                   D                  Em   F#m  G
Everythings blue now, Oh lu___cky you
               Am7   Bm7
Oh lucky you
                             Am7   Bm7
there's nothing to lose
   Bm7              D
so if it's really true
                Em7   A   Em7   A   G
Oh lucky you

SOLO: X2 (Same chords as verses)

E:-------------------------------------------------------------------|
B:---5---3--5---6--5--3---5---3-5---6--5--3----------5---------------|
G:---------------------------------------------------5---4-----------|
D:-------------------------------------------------------------------|
A:-------------------------------------------------------------------|
E:-------------------------------------------------------------------|

VERSE 2:

You're chasing the moon
reaching out to touch the stars
but you land to soon
what will it take to make you see
the way things really are
you've got this far
so let it happen

VERSE 3:

You're lying again
give it up and tell the truth
you can't stop the rain
it's gonna fall on every roof
I've got the proof
and only you
can make it happen

BRIDGE:

CHORUS:

OUTRO:

    Am7                  G        D   Am7              G     Em

E:----------------------------------------------------3---------------|
B:---5---6---5-3---5-------------5---6--5--3-------6--5---------------|
G:-------------------------5------------------------------------------|
D:--------------------------------------------------------------------|
A:--------------------------------------------------------------------|
E:--------------------------------------------------------------------|

Repeat to fade:

By Sam Galloway UK
Cheers!!

            
            
Suggest correction
Creating personal tab
Creating personal tab
You can edit any tab online and save it as your Personal.

You can edit, replace or remove any tab part or add personal notes – all changes will be seen only by you.

Personal tabs can be accessed anytime from any device, even offline.
Learn more »
comments
print report bad tab
1 comment total.
0 reply
penguinpaul 20 Feb 15, 2008 04:07 AM

Nice Tab chord-wise, but the solo is in the wrong key for the rest of the song. I play it:

E-7--5--7--8--7--5--7--5--7--8--7--5--------7--
B-------------------------------------8--7-----
G----------------------------------------------
D----------------------------------------------
A----------------------------------------------
E---------------------------------------------- X2

This is the 1st time ive tabbed anything so im not sure if i used the hyphens (-- things) right :)

guest
Wanna post a correction for this tab? Suggest correction