Oops, an error
Loading. Please wait.

June Gloom tab

3,571 views 21 this week
4 commentsread comments
1 2 3 4 5
1 last vote to show rating
add to favorites
×
Save as Personal and add changes to this tab that will be seen only by you. Learn more ›
×
You can save this tab as Personal to edit and correct it or add notes. All changes will be seen only by you. Learn more »
launch autoscroll
font size
0
reset
how to read this tab
guitar tuner
edit
Autoscroll
slow
fast
+/-
esc
set tempo
stop
----------------------------------------------------------------------------
                          June Gloom - The Like
----------------------------------------------------------------------------
Tabbed by:ChodeBurglar342
Email:weezerl_grl_361@sbcglobal.net

Tuning:Standard


Riff #1  >used in the intro and in most parts throughout the song
e|----------------------------------------------------------------|
B|----------------------------------------------------------------|
G|----------------------------------------------------------------|
D|-5--5-5-4-4-4-4-2-2-2-2-0-0-0-0-3-3-3-3-2-2-2-2-0-0-0-0-0-0-0-0-| x4
A|----------------------------------------------------------------|
E|----------------------------------------------------------------|

After you play Riff #1 the fourth time, you go into riff #2

Riff #2
e|-------------------|
B|-------------------|
G|-------------------|
D|-------------------| x1
A|---------3-3-3-3---|
e|-1-1-1-1---------3-| < Let it ring out two full measures and right
                         when the third would start, continue with Riff #3.

Riff #3
e|----------------------------------------------------------------------|
B|----------------------------------------------------------------------|
G|----------------------------------------------------------------------|
D|-5/--9-9-9-9-9-9-9-9-9-9-9-9-9-9-9-9-10101010101010101010101010101010\|
A|-5/--9-9-9-9-9-9-9-9-9-9-9-9-9-9-9-9-10101010101010101010101010101010\|
e|-3/--7-7-7-7-7-7-7-7-7-7-7-7-7-7-7-7-8-8-8-8-8-8-8-8-8-8-8-8-8-8-8-8\-|

e|---
B|---
G|---
D|-5-  x2 < Let this last little part ring out for another 2 measures the
A|-5-       fist time.  After the second time, instead of letting it ring,
e|-3-       play Riff #1 right after.

There's another change during the song and I didn't get the end. I'm still trying to 
it out but I hope you were able to read the tabs ok because this is my first one.  I know, 
a noob. =P

If you didn't understand my directions just listen to the song and play the tabs along 
it.  Hope you liked it.

Love ya.


| /  slide up
| \  slide down
============================================================================

            
            
Suggest correction
Creating personal tab
Creating personal tab
You can edit any tab online and save it as your Personal.

You can edit, replace or remove any tab part or add personal notes – all changes will be seen only by you.

Personal tabs can be accessed anytime from any device, even offline.
Learn more »
Give kudos to tab author, rate the tab!
1 2 3 4 5
comments
print report bad tab
4 comments total. Showing first comments.
0 reply
XxfreakyteddyxX 53 Jul 11, 2006 11:22 AM

you got it right =]

theres a part near the end

e-
b-
g-
d-
a-2--2-0---0-2---2-0---0-2---2-0---0----
e--------3-----------3-----------3---0-2

and then while they sing i don't know ^_^u ... but at least it's sth lol

0 reply
ChodeBurglar342 30 Jul 27, 2006 05:04 PM

lol

0 reply
jiro_the_fish91 314 Jul 28, 2006 07:20 AM

riff a goes like this:

e-
b-
g-
d-5-5-5-5-4-4-4-4-2-2-2-2-0-0-0-0-
a---------------------------------3-3-3-3-2-2-2-2-0-0-0-0-0-0-0-0
E-

guest
You may want to rate the tab now too:
select rating
Wanna post a correction for this tab? Suggest correction