Oops, an error
Loading. Please wait.

Existential Blues tab

109 views 1 this week
no commentswrite comment
1 2 3 4 5
3 more votes to show rating
add to favorites
×
Save as Personal and add changes to this tab that will be seen only by you. Learn more ›
×
You can save this tab as Personal to edit and correct it or add notes. All changes will be seen only by you. Learn more »
launch autoscroll
font size
0
reset
how to read this tab
guitar tuner
edit
Autoscroll
slow
fast
+/-
esc
set tempo
stop
[Intro]
e|----1---1---1------1---1---1---0-------------------------------------------|
B|----3---3---3------3---3---3---1-------------------------------------------|
G|----2---2---2------2---2---2---0-------------------------------------------|
D|--0---3-----3----0---3-----3---2-------------------------------------------|
A|----------1--------------1---3---------------------------------------------|
E|---------------------------------------------------------------------------|

e|----1---1---1------3----3----6--5------------------------------------------|
B|----3---3---3------2----2----5--5------------------------------------------|
G|----2---2---2------3----3----6--6------------------------------------------|
D|--0---3-----3----2----2----5----7------------------------------------------|
A|----------1----------------------------------------------------------------|
E|---------------------------------------------------------------------------|

[Verse]
We gotta real thing goin’ here
Another sacred point of view
But when I write know that I would put the wheels in motion for you
I gotta bright idea
But a gotta bone to pick with you
But when I die blow you kisses to the sky where I will break through
of these existential blues

e|----1---1---1------1---1---1---0-------------------------------------------|
B|----3---3---3------3---3---3---1-------------------------------------------|
G|----2---2---2------2---2---2---0-------------------------------------------|
D|--0---3-----3----0---3-----3---2-------------------------------------------|
A|----------1--------------1---3---------------------------------------------|
E|---------------------------------------------------------------------------|

e|----1----1-----3--------3-------------3------------------------------------|
B|----3----3-----3----3---3---------3---3---------3--2-----------------------|
G|----2----2-----0----3---0---------3---0---------3--2-----------------------|
D|--0---0-------------3---0---------3---0---------3--2-----------------------|
A|--------3--3-2--1-1-----2-----0-1-1---2-----0-1----0-----------------------|
E|------------------------3---3---------3---3--------------------------------|

[Chorus]
Now you learned your lesson
Well, are you satisfied?
You figured out how to fill your soul
But can you empty up your mind?

e|--1----1----1--------------1----1----1-----0-------------------------------|
B|--3----1----0----3----2----2----1----0-----2-------------------------------|
G|--2----2----2----3----2----2----2----2-----0-------------------------------|
D|--0----0----0----3----3----3----3----0-----2-------------------------------|
A|-----------------1----1---------3----------0-------------------------------|
E|---------------------------------------------------------------------------|

[Instrumental]
e|----1---1---1------1---1---1---0-------------------------------------------|
B|----3---3---3------3---3---3---1-------------------------------------------|
G|----2---2---2------2---2---2---0-------------------------------------------|
D|--0---3-----3----0---3-----3---2-------------------------------------------|
A|----------1--------------1---3---------------------------------------------|
E|---------------------------------------------------------------------------|

e|----1----1-----3--------3-------------3------------------------------------|
B|----3----3-----3----3---3---------3---3---------3--2-----------------------|
G|----2----2-----0----3---0---------3---0---------3--2-----------------------|
D|--0---0-------------3---0---------3---0---------3--2-----------------------|
A|--------3--3-2--1-1-----2-----0-1-1---2-----0-1----0-----------------------|
E|------------------------3---3---------3---3--------------------------------|

[Chorus]
Now you learned your lesson
Well, are you satisfied?
You figured out how to fill your soul
But can you empty up your mind?

e|--1----1----1--------------1----1----1-----0-------------------------------|
B|--3----1----0----3----2----2----1----0-----2-------------------------------|
G|--2----2----2----3----2----2----2----2-----0-------------------------------|
D|--0----0----0----3----3----3----3----0-----2-------------------------------|
A|-----------------1----1---------3----------0-------------------------------|
E|---------------------------------------------------------------------------|

[Verse 2]
It’s been a long time coming
I’ve seen a hundred thousand moons
In every one the reflection of the sun, oh the mirror of truth
But when a soul (sol) is setting
You know it’s only out of view (out of you)
Now when I die know that I will come around and rise up anew
Once more be subject to
These existential blues

e|----1---1---1------1---1---1---0-------------------------------------------|
B|----3---3---3------3---3---3---1-------------------------------------------|
G|----2---2---2------2---2---2---0-------------------------------------------|
D|--0---3-----3----0---3-----3---2-------------------------------------------|
A|----------1--------------1---3---------------------------------------------|
E|---------------------------------------------------------------------------|

e|----1----1-----3--------3-------------3-----------------1------------------|
B|----3----3-----3----3---3---------3---3---------3--2----3------------------|
G|----2----2-----0----3---0---------3---0---------3--2----2------------------|
D|--0---0-------------3---0---------3---0---------3--2----0------------------|
A|--------3--3-2--1-1-----2-----0-1-1---2-----0-1----0-----------------------|
E|------------------------3---3---------3---3--------------------------------|

            
            
Suggest correction
Creating personal tab
Creating personal tab
You can edit any tab online and save it as your Personal.

You can edit, replace or remove any tab part or add personal notes – all changes will be seen only by you.

Personal tabs can be accessed anytime from any device, even offline.
Learn more »
Give kudos to tab author, rate the tab!
1 2 3 4 5
comments
print report bad tab
guest
You may want to rate the tab now too:
select rating
Wanna post a correction for this tab? Suggest correction