Oops, an error
Loading. Please wait.

The Ship Is Sinking tab

254 views 1 this week
1 commentread comment
1 2 3 4 5
2 more votes to show rating
add to favorites
×
Save as Personal and add changes to this tab that will be seen only by you. Learn more ›
×
You can save this tab as Personal to edit and correct it or add notes. All changes will be seen only by you. Learn more »
launch autoscroll
font size
0
reset
how to read this tab
guitar tuner
edit
Autoscroll
slow
fast
+/-
esc
set tempo
stop
THE SHIP IS SINKING - THE LIVING END


tabbed By: Matt Heal
email : mattheal @ gmail.com
for more tabs by the living end check out http://tletabs.webs.com/index.htm




e|------------7----7---7----------|
b|------------8----8---8----------|
g|------------9----9---9----5555--|
d|------------9----9---9----xxxx--|
a|------------7----7---7----3333--|
E|-/////--------------------------|

Pre Chorus
e|--5-5-5-5--|	
b|--5-5-5-5--|	
g|--5-5-5-5--| repeat as necassary then	
d|--7-7-7-7--|	
a|--7-7-7-7--|	
E|--5-5-5-5--|	
pm***********

e|-----------|
b|-5-5--7-7--|
g|-5-5--7-7--|
d|-5-5--7-7--|
a|-3-3--5-5--|
E|-----------|
Chorus

e|-7-7-7-7-7-7-7---------------|
b|-8-8-8-8-8-8-8---5-5--7-7----|
g|-9-9-9-9-9-9-9---5-5--7-7----| x 2
d|-9-9-9-9-9-9-9---5-5--7-7----|
a|-7-7-7-7-7-7-7---3-3--5-5----|
E|-----------------------------|

Verse (delay

e|-0-----7----7---7----------|
b|-------8----8---8----------|
g|-------9----9---9----5555--|
d|-------9----9---9----xxxx--|
a|-------7----7---7----3333--|
E|---------------------------|


Pre Chorus
e|--5-5-5-5--|	 e|-----------|
b|--5-5-5-5--|	 e|-5-5--7-7--|
g|--5-5-5-5--| repeat as necassary then	e|-5-5--7-7--|
d|--7-7-7-7--|	 e|-5-5--7-7--|
a|--7-7-7-7--|	 e|-3-3--5-5--|
E|--5-5-5-5--|	 e|-----------|
pm***********

Chorus

e|-7-7-7-7-7-7-7---------------|
b|-8-8-8-8-8-8-8---5-5--7-7----|
g|-9-9-9-9-9-9-9---5-5--7-7----|
d|-9-9-9-9-9-9-9---5-5--7-7----|
a|-7-7-7-7-7-7-7---3-3--5-5----|
E|-----------------------------|


Solo 

e|--121212121212-101010101010-777777--------------------------------|
b|------------------------------------101010101010--121212121212----|
g|------------------------------------------------------------------|
d|------------------------------------------------------------------|
a|------------------------------------------------------------------|
E|------------------------------------------------------------------|

e|------------------------------------------------------------------|
b|-101010101010--88888888-------------------------------------------|
g|------------------------9~---7b(9)--------7b(9)-------------------|
d|-----------------------------------7^5----------7^5---------------|
a|------------------------------------------------------------------|
E|------------------------------------------------------------------|


e|-----------------------------------------------------------|
b|-----------------------------------------------------------|
g|-----------------------------------------------------------| x2
D|-----------------------------------------------------------|
a|-----------------------------------------------3333--------|
E|---000000222333--0000002223333--00000022223333-------------|

e|------------------------------------------------------------------------------|
b|------------------------------------------------------------------------------|
g|--999999-111111-121212---999999-111111-121212--999999-111111-121212---171717--|
d|--xxxxxx-x-x-x--x-x-x----xxxxxx-x-x-x--x-x-x---xxxxxx-x-x-x--x-x-x----x-x-x---| X2
a|--777777-9-9-9--101010---777777-9-9-9--101010--777777-9-9-9--101010---151515--|
E|------------------------------------------------------------------------------|

e|--------------------------------------|
b|--------------------------------------|
g|---------7--------7--------7h9p7-9~---|
d|--7-9-10---7-9-10---7-9-10------------|
a|--------------------------------------|
E|--------------------------------------|

Chorus

e|-7-7-7-7-7-7-7---------------|
b|-8-8-8-8-8-8-8---5-5--7-7----|
g|-9-9-9-9-9-9-9---5-5--7-7----| x 3
d|-9-9-9-9-9-9-9---5-5--7-7----|
a|-7-7-7-7-7-7-7---3-3--5-5----|
E|-----------------------------|

end on

e|-7-|
b|-8-|
g|-9-|
d|-9-|
a|-7-|
E|---|

            
            
Suggest correction
Creating personal tab
Creating personal tab
You can edit any tab online and save it as your Personal.

You can edit, replace or remove any tab part or add personal notes – all changes will be seen only by you.

Personal tabs can be accessed anytime from any device, even offline.
Learn more »
Give kudos to tab author, rate the tab!
1 2 3 4 5
comments
print report bad tab
1 comment total.
0 reply
Oldmonkeys 591 Nov 19, 2008 07:16 PM

WHATS THIS ANNOTHER ONE OF MY TABS YOU STOLE?

guest
You may want to rate the tab now too:
select rating
Wanna post a correction for this tab? Suggest correction