Oops, an error
Loading. Please wait.

Wake Up bass

version 4
version 4

Whole song

Interactive

110 views 1 this week
no commentswrite comment
1 2 3 4 5
3 more votes to show rating
add to favorites
×
Save as Personal and add changes to this tab that will be seen only by you. Learn more ›
×
You can save this tab as Personal to edit and correct it or add notes. All changes will be seen only by you. Learn more »
launch autoscroll
font size
0
reset
guitar tuner
edit
Autoscroll
slow
fast
+/-
esc
set tempo
stop
SONG: Wake Up
ALBUM: State of Emergency
ARTIST: The Living End

INTRO 8 BARS GUITAR

DRUMS AND BASS COME IN

G|-----------------|-----------------|-----------------|-----------------|
D|-----------------|-----------------|-----------------|-----------------|
A|-----------------|-----------------|-----------------|-----------------|
E|-7---7---7---7\--|-0---0---0---0/--|-7---7---7---7\--|-5---5---5---5/--|
   1 + 2 + 3 + 4 +   1 + 2 + 3 + 4 +   1 + 2 + 3 + 4 +   1 + 2 + 3 + 4 +

G|-----------------|-----------------|-----------------|-----------------|
D|-----------------|-----------------|-----------------|-----------------|
A|-----------------|-----------------|-----------------|-----------------|
E|-7---7---7---7\--|-3---3---3---3/--|-7---7---7---7---|-7---7---7---7---|
   1 + 2 + 3 + 4 +   1 + 2 + 3 + 4 +   1 + 2 + 3 + 4 +   1 + 2 + 3 + 4 +

VERSE

G|-----------------|-----------------|-----------------|-----------------|
D|-----------------|-----------------|-----------------|-----------------|
A|-----------------|-----------------|-----------------|-----------------|
E|-7---7---7---7\--|-0---0---0---0/--|-7---7---7---7\--|-5---5---5---5/--|
   1 + 2 + 3 + 4 +   1 + 2 + 3 + 4 +   1 + 2 + 3 + 4 +   1 + 2 + 3 + 4 +

G|-----------------|-----------------|-----------------|-----------------|
D|-----------------|-----------------|-----------------|-----------------|
A|-----------------|-----------------|-----------------|-----------------|
E|-7---7---7---7\--|-3---3---3---3/--|-7---7---7---7---|-7---7---7---7---|
   1 + 2 + 3 + 4 +   1 + 2 + 3 + 4 +   1 + 2 + 3 + 4 +   1 + 2 + 3 + 4 +

G|-----------------|-----------------|-----------------|-----------------|
D|-----------------|-----------------|-----------------|-----------------|
A|-----------------|-----------------|-----------------|-----------------|
E|-7---7---7---7\--|-0---0---0---0/--|-7---7---7---7\--|-5---5---5---5/--|
   1 + 2 + 3 + 4 +   1 + 2 + 3 + 4 +   1 + 2 + 3 + 4 +   1 + 2 + 3 + 4 +

G|-----------------|-----------------|-----------------|-----------------|
D|-----------------|-----------------|-----------------|-----------------|
A|-----------------|-----------------|-----------------|-----------------|
E|-7---7---7---7\--|-3---3---3---3/--|-7---7---7---7---|-2-2-2-2-2-2-2-2-|
   1 + 2 + 3 + 4 +   1 + 2 + 3 + 4 +   1 + 2 + 3 + 4 +   1 + 2 + 3 + 4 +

G|-----------------|
D|-----------------|
A|-----------------|
E|-2-2-2-2-2-2-2-2-|
   1 + 2 + 3 + 4 +   

CHORUS

G|-----------------|-----------------|-----------------|-----------------|
D|-----------------|-----------------|-----------------|-4-4-4-4-4-4-4-4-|
A|-2-2-2-2-2-2-2-2-|-----------------|-5-5-5-5-5-5-5-5-|-----------------|
E|-----------------|-3-3-3-3-3-3-3-3-|-----------------|-----------------|
   1 + 2 + 3 + 4 +   1 + 2 + 3 + 4 +   1 + 2 + 3 + 4 +   1 + 2 + 3 + 4 +

G|-----------------|-----------------|-----------------|-----------------|
D|-----------------|-----------------|-----------------|-4-4-4-4-4-4-4-4-|
A|-2-2-2-2-2-2-2-2-|-----------------|-5-5-5-5-5-5-5-5-|-----------------|
E|-----------------|-3-3-3-3-3-3-3-3-|-----------------|-----------------|
   1 + 2 + 3 + 4 +   1 + 2 + 3 + 4 +   1 + 2 + 3 + 4 +   1 + 2 + 3 + 4 +

G|-----------------|-----------------|
D|-5-5-5-5-5-5-5-5-|-5-5-5-5-5-5-5-5-|
A|-----------------|-----------------|
E|-----------------|-----------------|
   1 + 2 + 3 + 4 +   1 + 2 + 3 + 4 +   

INTERLUDE

G|-----------------|-----------------|-----------------|-----------------|
D|-----------------|-----------------|-----------------|-----------------|
A|-----------------|-----------------|-----------------|-----------------|
E|-7---7---7---7---|-7---7---7---7---|-7---7---7---7---|-7---7---7---7---|
   1 + 2 + 3 + 4 +   1 + 2 + 3 + 4 +   1 + 2 + 3 + 4 +   1 + 2 + 3 + 4 +

VERSE

G|-----------------|-----------------|-----------------|-----------------|
D|-----------------|-----------------|-----------------|-----------------|
A|-----------------|-----------------|-----------------|-----------------|
E|-7---7---7---7\--|-0---0---0---0/--|-7---7---7---7\--|-5---5---5---5/--|
   1 + 2 + 3 + 4 +   1 + 2 + 3 + 4 +   1 + 2 + 3 + 4 +   1 + 2 + 3 + 4 +

G|-----------------|-----------------|-----------------|-----------------|
D|-----------------|-----------------|-----------------|-----------------|
A|-----------------|-----------------|-----------------|-----------------|
E|-7---7---7---7\--|-3---3---3---3/--|-7---7---7---7---|-7---7---7---7---|
   1 + 2 + 3 + 4 +   1 + 2 + 3 + 4 +   1 + 2 + 3 + 4 +   1 + 2 + 3 + 4 +

G|-----------------|-----------------|-----------------|-----------------|
D|-----------------|-----------------|-----------------|-----------------|
A|-----------------|-----------------|-----------------|-----------------|
E|-7---7---7---7\--|-0---0---0---0/--|-7---7---7---7\--|-5---5---5---5/--|
   1 + 2 + 3 + 4 +   1 + 2 + 3 + 4 +   1 + 2 + 3 + 4 +   1 + 2 + 3 + 4 +

G|-----------------|-----------------|-----------------|-----------------|
D|-----------------|-----------------|-----------------|-4-4-4-4-4-4-4-4-|
A|-----------------|-----------------|-----------------|-----------------|
E|-7---7---7---7\--|-3---3---3---3/--|-7---7---7---7---|-----------------|
   1 + 2 + 3 + 4 +   1 + 2 + 3 + 4 +   1 + 2 + 3 + 4 +   1 + 2 + 3 + 4 +

G|-----------------|
D|-4-4-4-4-4-4-4-4-|
A|-----------------|
E|-----------------|
   1 + 2 + 3 + 4 +   

CHORUS

G|-----------------|-----------------|-----------------|-----------------|
D|-----------------|-----------------|-----------------|-4-4-4-4-4-4-4-4-|
A|-2-2-2-2-2-2-2-2-|-----------------|-5-5-5-5-5-5-5-5-|-----------------|
E|-----------------|-3-3-3-3-3-3-3-3-|-----------------|-----------------|
   1 + 2 + 3 + 4 +   1 + 2 + 3 + 4 +   1 + 2 + 3 + 4 +   1 + 2 + 3 + 4 +

G|-----------------|-----------------|-----------------|-----------------|
D|-----------------|-----------------|-----------------|-4-4-4-4-4-4-4-4-|
A|-2-2-2-2-2-2-2-2-|-----------------|-5-5-5-5-5-5-5-5-|-----------------|
E|-----------------|-3-3-3-3-3-3-3-3-|-----------------|-----------------|
   1 + 2 + 3 + 4 +   1 + 2 + 3 + 4 +   1 + 2 + 3 + 4 +   1 + 2 + 3 + 4 +

G|-----------------|-----------------|
D|-5-5-5-5-5-5-5-5-|-5-5-5-5-5-5-5-5-|
A|-----------------|-----------------|
E|-----------------|-----------------|
   1 + 2 + 3 + 4 +   1 + 2 + 3 + 4 +   


INTERLUDE

G|-----------------|-----------------|-----------------|-----------------|
D|-----------------|-----------------|-----------------|-----------------|
A|-----------------|-----------------|-----------------|-----------------|
E|-7---7---7---7---|-7---7---7---2///|-7---7---7---7---|-7---7---7---2///|
   1 + 2 + 3 + 4 +   1 + 2 + 3 + 4 +   1 + 2 + 3 + 4 +   1 + 2 + 3 + 4 +

G|-----------------|-----------------|
D|-----------------|-----------------|
A|-----------------|-----------------|
E|-7---7---7---7---|-7\\\2///7\\\2///|
   1 + 2 + 3 + 4 +   1 + 2 + 3 + 4 +  

CHORUS

G|-----------------|-----------------|-----------------|-----------------|
D|-----------------|-----------------|-----------------|-4-4-4-4-4-4-4-4-|
A|-2-2-2-2-2-2-2-2-|-----------------|-5-5-5-5-5-5-5-5-|-----------------|
E|-----------------|-3-3-3-3-3-3-3-3-|-----------------|-----------------|
   1 + 2 + 3 + 4 +   1 + 2 + 3 + 4 +   1 + 2 + 3 + 4 +   1 + 2 + 3 + 4 +

G|-----------------|-----------------|-----------------|-----------------|
D|-----------------|-----------------|-----------------|-4-4-4-4-4-4-4-4-|
A|-2-2-2-2-2-2-2-2-|-----------------|-5-5-5-5-5-5-5-5-|-----------------|
E|-----------------|-3-3-3-3-3-3-3-3-|-----------------|-----------------|
   1 + 2 + 3 + 4 +   1 + 2 + 3 + 4 +   1 + 2 + 3 + 4 +   1 + 2 + 3 + 4 +

G|-----------------|-----------------|-----------------|-----------------|
D|-5-5-5-5-5-5-5-5-|-5-5-5-5-5-5-5-5-|---5-5-5-5-5-5-5-|-5-5-5-5-5-5-5-5-|
A|-----------------|-----------------|-5---------------|-----------------|
E|-----------------|-----------------|-----------------|-----------------|
   1 + 2 + 3 + 4 +   1 + 2 + 3 + 4 +   1 + 2 + 3 + 4 +   1 + 2 + 3 + 4 +  

VERSE (NO BASS)

LAST CHORUS

G|-----------------|-----------------|-----------------|-----------------|
D|-----------------|-----------------|-----------------|-----------------|
A|-2---------------|-----------------|-5---------------|-----------------|
E|-----------------|-3---------------|-----------------|-2---------------|
   1 + 2 + 3 + 4 +   1 + 2 + 3 + 4 +   1 + 2 + 3 + 4 +   1 + 2 + 3 + 4 +

G|-----------------|-----------------|-----------------|-----------------|
D|-----------------|-----------------|-----------------|-----------------|
A|-2---------------|-----------------|-5---------------|-----------------|
E|-----------------|-3---------------|-----------------|-2---------------|
   1 + 2 + 3 + 4 +   1 + 2 + 3 + 4 +   1 + 2 + 3 + 4 +   1 + 2 + 3 + 4 +

G|-----------------|-----------------|-----------------|-----------------|
D|-----------------|-----------------|-----------------|-----------------|
A|-2---------------|-----------------|-5---------------|-----------------|
E|-----------------|-3---------------|-----------------|-2---------------|
   1 + 2 + 3 + 4 +   1 + 2 + 3 + 4 +   1 + 2 + 3 + 4 +   1 + 2 + 3 + 4 +

G|-----------------|-----------------|-----------------|-----------------|
D|-----------------|-----------------|-----------------|-----------------|
A|-2---------------|-----------------|-5---------------|-----------------|
E|-----------------|-3---------------|-----------------|-2---------------|
   1 + 2 + 3 + 4 +   1 + 2 + 3 + 4 +   1 + 2 + 3 + 4 +   1 + 2 + 3 + 4 +

G|-----------------|-----------------|-----------------|-----------------|
D|-----------------|-----------------|-----------------|-----------------|
A|-2---------------|-----------------|-5---------------|-----------------|
E|-----------------|-3---------------|-----------------|-2---------------|
   1 + 2 + 3 + 4 +   1 + 2 + 3 + 4 +   1 + 2 + 3 + 4 +   1 + 2 + 3 + 4 +

G|-----------------|-----------------|
D|-----------------|-----------------|
A|-2---------------|-----------------|
E|-----------------|-----------------|
   1 + 2 + 3 + 4 +   1 + 2 + 3 + 4 +

            
            
Suggest correction
Creating personal tab
Creating personal tab
You can edit any tab online and save it as your Personal.

You can edit, replace or remove any tab part or add personal notes – all changes will be seen only by you.

Personal tabs can be accessed anytime from any device, even offline.
Learn more »
Give kudos to tab author, rate the tab!
1 2 3 4 5
comments
print report bad tab
guest
You may want to rate the tab now too:
select rating
Wanna post a correction for this tab? Suggest correction