Oops, an error
Loading. Please wait.

West End Riot tab

version 3
version 3

Whole song

Interactive

800 views 1 this week
3 commentsread comments
1 2 3 4 5
x 3
add to favorites
×
Save as Personal and add changes to this tab that will be seen only by you. Learn more ›
×
You can save this tab as Personal to edit and correct it or add notes. All changes will be seen only by you. Learn more »
launch autoscroll
font size
0
reset
how to read this tab
guitar tuner
edit
Autoscroll
slow
fast
+/-
esc
set tempo
stop
Author
Difficulty
                        The Living End - West end riot
Tabbed by Dan (guitar_guy)
Email: music_mad92@hotmail.com

Tuning: standard
                            intro part 1

e|---------7--7--7---------7--7--7---------7--7--7---------7--7--7|
B|888777888--8--8-888777888--8--8-888777888--8--8-888777888--8--8-|
G|999999999-9--9--999999999-9--9--999999999-9--9--999999999-9--9--|
D|----------------------------------------------------------------|
A|----------------------------------------------------------------|
E|----------------------------------------------------------------|

                            intro part 2
e|00000000000000------------------00000000000000--------------------|
B|88775533000000------------------88775533000000--------------------|
G|----------330000--------------------------3300000-----------------|
D|--------------44------5422----54--------------44------5422----54--|
A|------------------2233----2233--------------------2233----2233----|
E|----------------00------------------------------00----------------|

                                verse
e|0---------------------------------------------------------------|
B|0-------------55------------------------------------------------|
G|0-------------44------------------------------------------------|
D|2-------------22----5422----5422----5422----5422----5422----5422|
A|2---------------2233----2233----2233----2233----2233----2233----|
E|0---------------------------------------------------------------|
let em ring        every week they would meet...

e|----------------------------------------------------------------|
B|----------------------------------------------------------------|
G|------------------------------------------------------3443443444|
D|----5422----22------------22------------22------------3443443444|
A|2233----22332233----2233--2233----2233--2233----2233--1221221222|
E|------------00--3200----3200--3200----3200--3200----32----------|

                               chorus
e|-------------------- ----000-000-333----------------------|
B|55------------------ 333-000-111-333-----------------88---|
G|44-44-55----777-888- 444-000-000-000-222-444-555-777-77---|
D|22-44-55-55-777-888- 444-222-222-000-222-555-555-777-66---|
A|---22-33-55-555-666- 222-222-333-222-000-222-333-555-77---|
E|---------33--------- ----000-----333----------------------|

repeat above x4 until A, A# then repeat that whole section again the same.

              bridge
e|------------ ------------ -----------|
B|------------ ------------ -----------|
G|-----5-----5 -----7-----7 9-4-5-77-99|
D|--5--5--5--5 --7--7--7--7 9-4-5-77-99|
A|--5333--5333 --7555--7555 7-2-3-55-77|
E|333---333--- 555---555--- -----------|

x2 then          x2 aswell

                               solo

e|----------3---------------------------------------------10h-11-10---|
B|-----3---4-3---------------------------11-11-11-13-13-13------------|
G|002/3-320--------320--12-12-12-14-14-14-----------------------------|
D|--------------030---45----------------------------------------------|
A|--------------------------------------------------------------------|
E|------------33------------------------------------------------------|

e|-----------------15-15-15-17-17-17-17h-18-17--------------------|
B|16-16-16-18-18-18-----------------------------------------------|
G|--------------------------------------------55/887-10\9-10-13-12|
D|----------------------------------------------------------------|
A|--------------------------------------------33/665--8\7--8-11-10|
E|----------------------------------------------------------------|

                                                   x2

e|---10-------------10-10------------15-----14------13---12---11----10---10|
B|------11----10-11-------11----10-11------0------0-----0----0----0---0----|
G|12-------12-10-12----------12-10-12---17-----16-----15---14---13---------|
D|-------------------------------------------------------------------------|
A|-------------------------------------------------------------------------|
E|-------------------------------------------------------------------------|

e---------------------------------------------------xxxx|
B---------------------------------------------------xxxx|
G------------------2-2-2-2-5-5-5-5-------------5-5-5xxxx|
D----------4-4-4-4-4-4-4-4-4-4-4-4---------4-4-4-4-4xxxx|
B--5-5-5-5-5-5-5-5-5-5-5-5-5-5-5-5-6-6-6-6-6-6-6-6-6xxxx|
E---------------------------------------------------xxxx|

now play the beggining of intro riff part 2.

                              interlude:
e|---------------- --------------------|
B|---------------- 8888-7777-5555-3333-|
G|---------------- --------------------|
D|---------------- --------------------|
A|--77--22--33--55 --------------------|
E|00--00--00--00-- --------------------|

        x8                x3 p.m

 then go back into chorus and your done. hope you liked it please email me for 
or comments. thanks

            
            
Suggest correction
Creating personal tab
Creating personal tab
You can edit any tab online and save it as your Personal.

You can edit, replace or remove any tab part or add personal notes – all changes will be seen only by you.

Personal tabs can be accessed anytime from any device, even offline.
Learn more »
Give kudos to tab author, rate the tab!
1 2 3 4 5
comments
print report bad tab
3 comments total.
0 reply
Avaraz 10 Jan 24, 2006 04:04 PM

give up while u can........ im shit at this but still beter than u the intro goes:

e|-0-0-0-0-0-0-0-0-|0-7-0---7-0---7-|0-0-0-0-0-0-0-0-|0-7-0---7-0-7-|
B|-8-8-8-7-7-7-8-8-|8-----8-----8---|8-8-8-7-7-7-8-8-|8-----8----8--|
G|-----------------|----------------|----------------|--------------|
D|-----------------|----------------|----------------|--------------|
A|-----------------|----------------|----------------|--------------|
E|-----------------|----------------|----------------|--------------|

e|-0-0-0-0-0-0-0-0-|0-7-0---7-0---7-|0-0-0-0-0-0-0-0-|0-7-0-7-0-----|
B|-8-8-8-7-7-7-8-8-|8-----8-----8---|8-8-8-7-7-7-8-8-|8----8---8-3/-|
G|-----------------|----------------|----------------|--------------|
D|-----------------|----------------|----------------|--------------|
A|-----------------|----------------|----------------|--------------|
E|-----------------|----------------|----------------|--------------|

e|-0-0-0-0-0-0-0-0-0-0-------------------------------------------|
B|-8-8-7-7-5-5-3-3-0-0-------------------------------------------|
G|---------------------2-2---------------------------------------|
D|-------------------------5-5-4-4-------------------------------|
A|-------------------------------------2-2-3-3---------2-2-3-3---|
E|---------------------------------0-0---------3-2-0-0---------3-|

e|-0-0-0-0-0-0-0-0-|0-0-------------|----------------|--------------|
B|-8-8-7-7-5-5-3-3-|0-0-------------|----------------|--------------|
G|-----------------|----2-2---------|----------------|--------------|
D|-----------------|--------5-5-4-4-|----------------|--------------|
A|-----------------|----------------|----2-2-3-3-----|----2-2-3-3---|
E|-----------------|----------------|0-0---------3-2-|0-0---------3-|

Avaraz

0 reply
guitar_guy 37 Feb 11, 2006 07:00 PM

its the same sound except my way lets it ring out which is what chris does on the cd and in the second part chris plays it with the high e if you listen carefully. also u rote the bass part in the third section. The guitar plays it the way I rote it and the bass plays it your way. watch the splendor in the grass dvd and u can see which way he plays it. thanks anywayz

0 reply
moonpie 313 Apr 24, 2007 09:55 PM

This tab isn't that bad......
At first I just couldnt read it properly...
Maybe if u update it and tab it in sections it might just be easiyer to read......

Then again its proberly just my crap eye-sight....lol
Great accuracy though!

guest
You may want to rate the tab now too:
select rating
Wanna post a correction for this tab? Suggest correction