Oops, an error
Loading. Please wait.

Five Nights At Freddys 1 Song bass

719 views 3 this week
no commentswrite comment
1 2 3 4 5
2 more votes to show rating
add to favorites
×
Save as Personal and add changes to this tab that will be seen only by you. Learn more ›
×
You can save this tab as Personal to edit and correct it or add notes. All changes will be seen only by you. Learn more »
launch autoscroll
font size
0
reset
guitar tuner
edit
Autoscroll
slow
fast
+/-
esc
set tempo
stop
Author
Difficulty
-------------------------------------------------------------------------------
                             FNAF1 Song - The Living Tombstone
-------------------------------------------------------------------------------
Tabbed by:Drew Barber
E-mail: barberdrew43@yahoo.com

Tuning:C,F,A#,D#

D#|-----------------------5-----3-----6-----------------3-----6---------------|
A#|-----3-----3-----6-----------------------3-----6---------------------------|
F |--------------------3-----1-----4-----------------1-----4------------------|
C |--1-----1-----4-----------------------1-----4------------------------------|

D#|-----------------3-----6-----5-----------------------3---------------------|
A#|-----3-----6-----------------------2-----3-----6---------------------------|
F |--------------1-----4-----3-----------------------1------------------------|
C |--1-----4-----------------------0-----1-----4------------------------------|

D#|-----------------3-----6-----5---------------------------------------------|
A#|----3------6---------------------------------------------------------------|
F |--------------1-----4-----3-----6------------------------------------------|
C |-1------4------------------------------------------------------------------|

D#|---------------------------------------------------------------------------|
A#|---------------------------------------------------------------------------|
F |---------------------------------------------4-----4-----4-4-4-------------|
C |--1-----1-----1-1-1----4-----4-----4-4-4-----------------------------------|

D#|-------------------------------------------------------------------------------------------|
A#|-------------3-----3-3---------------------------------------------------------------------|
F |--3----3-3---------------1-----1---1-1-1---2----2---2-2-2-----3-----3----3-3-3-------------|
C |-------------------------------------------------------------------------------------------|

D#|---------------------------------------------------------------------------|
A#|---------------------------------------------------------------------------|
F |--2----2-2-----5----5-5-----3---3----3-3-3----6----6----6-6-6--------------|
C |---------------------------------------------------------------------------|

D#|---------------------------------------------------------------------------|
A#|-----------------------------------------3----3----3-3---------------------|
F |--4-----4----4-4-4-------3-----3----3-3------------------------------------|
C |---------------------------------------------------------------------------|

D#|---------------------------------------------------------------------------|
A#|---------------------------------------------------------------------------|
F |--1-----1----1-1-1-------2-----2----2-2-2-------3-----3-----3-3-3----------|
C |---------------------------------------------------------------------------|

D#|------------------------------------------------|
A#|------------------------------3-----------------|
F |------------------4--4-----3--------------------|
C |--1--1-----4--4---------------------------------|

D#|------------------------------------------------|
A#|---------------------------2--------------------|
F |--1--1-----2--2-----3--3-----3------------------|
C |------------------------------------------------|

D#|---------------------------------------------------------------------------|
A#|--3--3-----5--5-----6--6---------------------------------------------------|
F |---------------------------------3--4--4------6--6----------3--------------|
C |---------------------------4--4----------------------4--4------------------|

D#|---------------------------------------------------------------------------|
A#|------------------------6--6-----10----------------------------------------|
F |--8-8-8-----8-8-8----8------------------6----------------------------------|
C |---------------------------------------------------------------------------|

D#|--------------------------------1------------------------------------------|
A#|-------------------------2--2----------------------------------------------|
F |--4-4-4-----4-4-4----4--------------2--------------------------------------|
C |---------------------------------------------------------------------------|

D#|---------------------------------------------------------------------------|
A#|--------------------------------2------------------------------------------|
F |-------------------------3--3-------3--------------------------------------|
C |--4-4-4-----4-4-4----4-----------------------------------------------------|


D#|---------------------------------------------------------------------------|
A#|---------------------------------------------------------------------------|
F |--1-1-1-----1-1-1----1---4------2---5-----1-1-1-----1-1-1------4---3-------|
C |---------------------------------------------------------------------------|

Repeat the entire tab for the rest of the song, Its the same thing. I hope you enjoyed this is my first tab, 
thank you.
===============================================================================

            
            
Suggest correction
Creating personal tab
Creating personal tab
You can edit any tab online and save it as your Personal.

You can edit, replace or remove any tab part or add personal notes – all changes will be seen only by you.

Personal tabs can be accessed anytime from any device, even offline.
Learn more »
Give kudos to tab author, rate the tab!
1 2 3 4 5
comments
print report bad tab
guest
You may want to rate the tab now too:
select rating
Wanna post a correction for this tab? Suggest correction