Oops, an error
Loading. Please wait.

Lazy Sunday tab

version 2
version 2

Whole song

3,489 views 1 this week
no commentswrite comment
1 2 3 4 5
1 last vote to show rating
add to favorites
×
Save as Personal and add changes to this tab that will be seen only by you. Learn more ›
×
You can save this tab as Personal to edit and correct it or add notes. All changes will be seen only by you. Learn more »
launch autoscroll
font size
0
reset
how to read this tab
guitar tuner
edit
Autoscroll
slow
fast
+/-
esc
set tempo
stop
Author
Ok so I've seen that someone tried to make a copy of this and it didn't turn out so 
I sat down for 20 minutes with my guitar listening to this song and have figured most of it 
Have fun playing it.

Tuning: Standard (EADGBe)

Intro


Guitar
--------------------------------|
--------------------------------|
-2-------2-------2-------2------|
-2-------2-------2-------2------|
-0-------0-------0-------0------|
------3---------------3---------|

Bass
--------------------------------|
--------------------------------|
--------------------------------|
--------------------------------|
-0-------0-------0-------0------|
------3---------------3---------|

This is the first guitar solo

guitar
--------------------------------|
--------------------------------|
--------------------------------|
--------------------------------|
-3--3--3--1-3-6-8/3-------------|
--------------------------------|

Alternate way to play it:

guitar
--------------------------------|
--------------------------------|
----5---------------------------|
--------------------------------|
-3-----3--1-3-6/8/3-------------|
--------------------------------|

the second guitar solo (it helps to have a wammy
bar for this part, but string bending sounds just as good, also.

guitar
--------------------------------|
--------------------------------|
--------------------------------|
--------------------------------|
-3-3--6~~~3-1----3-3--6~~~3-1---|
--------------------------------|

and there you have it! all that you need to play Lazy Sunday by The Lonely Island! Peace 
~~Gerbetta33

            
            
Suggest correction
Creating personal tab
Creating personal tab
You can edit any tab online and save it as your Personal.

You can edit, replace or remove any tab part or add personal notes – all changes will be seen only by you.

Personal tabs can be accessed anytime from any device, even offline.
Learn more »
Give kudos to tab author, rate the tab!
1 2 3 4 5
comments
print report bad tab
guest
You may want to rate the tab now too:
select rating
Wanna post a correction for this tab? Suggest correction