Oops, an error
Loading. Please wait.

Mr Fortune tab

85 views 1 this week
no commentswrite comment
1 2 3 4 5
2 more votes to show rating
add to favorites
×
Save as Personal and add changes to this tab that will be seen only by you. Learn more ›
×
You can save this tab as Personal to edit and correct it or add notes. All changes will be seen only by you. Learn more »
launch autoscroll
font size
0
reset
how to read this tab
guitar tuner
edit
Autoscroll
slow
fast
+/-
esc
set tempo
stop
[Intro]

D |--------0-|-------------|---------------|--------------|------|--------------|-------------|--------------|
A |----------|----0--------|----0----------|----0---------|----0-|---0----------|---0---------|----0---------|
F#|----------|----------12-|------------10-|-----------10-|------|------------8-|-----------8-|------------10|
D |--------0-|-------0-----|-------11------|-------11-----|------|-------9------|-------9-----|--------11----|
A |----------|-------------|---------------|--------------|------|--------------|-------------|--------------|
D |-7-/-12---|-12----------|-11------------|-11-----------|-9----|-9------------|-9-----------|-11-----------|

D |--------0-|-------------|---------------|--------------|------|--------------|-------------|
A |----------|----0--------|----0----------|----0---------|----0-|---0----------|---0---------|
F#|----------|----------12-|------------10-|-----------10-|------|------------8-|-----------8-|
D |--------0-|-------0-----|-------11------|-------11-----|------|-------9------|-------9-----|
A |----------|-------------|---------------|--------------|------|--------------|-------------|
D |---12-----|-12----------|-11------------|-11-----------|-9----|-9------------|-9-----------|

D |------------|------------|------------|------------|
A |----0-------|----0-------|----0-------|----0-------|
F#|----------3-|----------5-|----------5-|----------5-|
D |-------4----|-------0----|-------0----|-------0----|
A |------------|------------|------------|------------|
D |-4----------|-5----------|-5----------|-5----------|

D |------------|------------|------------|------------|------------|
A |----0-------|----0-------|----0-------|----0-------|----0-------|
F#|----------3-|----------5-|----------5-|----------5-|----------5-|
D |-------4----|-------0----|-------0----|-------0----|-------0----|
A |------------|------------|------------|------------|------------|
D |-4----------|-5----------|-5----------|-5----------|-5----------|

D |------------|------------|------------|------------|
A |----0-------|----0-------|----0-------|----0-------|
F#|----------1-|----------1-|----------3-|----------3-|
D |-------2----|-------2----|-------4----|-------4----|
A |------------|------------|------------|------------|
D |-2----------|-2----------|-4----------|-4----------|

D |------------|------------|------------|------------|
A |----0-------|----0-------|----0-------|----0-------|
F#|----------5-|----------5-|----------5-|----------5-|
D |-------0----|-------0----|-------0----|-------0----|
A |------------|------------|------------|------------|
D |-5----------|-5----------|-5----------|-5----------|

D |------------|------------|------------|------------|
A |----0-------|----0-------|----0-------|----0-------|
F#|----------1-|----------1-|----------3-|----------3-|
D |-------2----|-------2----|-------4----|-------4----|
A |------------|------------|------------|------------|
D |-2----------|-2----------|-4----------|-4----------|

D |------------|------------|------------|------------|
A |----0-------|----0-------|----0-------|----0-------|
F#|----------5-|----------5-|----------5-|----------5-|
D |-------0----|-------0----|-------0----|-------0----|
A |------------|------------|------------|------------|
D |-5----------|-5----------|-5----------|-5----------|

D |------------|------------|------------|------------|
A |----0-------|----0-------|----0-------|----0-------|
F#|----------5-|----------5-|----------5-|----------5-|
D |-------0----|-------0----|-------0----|-------0----|
A |------------|------------|------------|------------|
D |-5----------|-5----------|-5----------|-5----------|

[Chorus]

D |--------0-|-------------|---------------|--------------|------|--------------|-------------|--------------|
A |----------|----0--------|----0----------|----0---------|----0-|---0----------|---0---------|----0---------|
F#|----------|----------12-|------------10-|-----------10-|------|------------8-|-----------8-|------------10|
D |--------0-|-------0-----|-------11------|-------11-----|------|-------9------|-------9-----|--------11----|
A |----------|-------------|---------------|--------------|------|--------------|-------------|--------------|
D |-7-/-12---|-12----------|-11------------|-11-----------|-9----|-9------------|-9-----------|-11-----------|

D |--------0-|-------------|---------------|--------------|------|--------------|-------------|
A |----------|----0--------|----0----------|----0---------|----0-|---0----------|---0---------|
F#|----------|----------12-|------------10-|-----------10-|------|------------8-|-----------8-|
D |--------0-|-------0-----|-------11------|-------11-----|------|-------9------|-------9-----|
A |----------|-------------|---------------|--------------|------|--------------|-------------|
D |---12-----|-12----------|-11------------|-11-----------|-9----|-9------------|-9-----------|

D |------------|------------|------------|------------|
A |----0-------|----0-------|----0-------|----0-------|
F#|----------3-|----------5-|----------5-|----------5-|
D |-------4----|-------0----|-------0----|-------0----|
A |------------|------------|------------|------------|
D |-4----------|-5----------|-5----------|-5----------|

D |------------|------------|------------|------------|------------|
A |----0-------|----0-------|----0-------|----0-------|----0-------|
F#|----------3-|----------5-|----------5-|----------5-|----------5-|
D |-------4----|-------0----|-------0----|-------0----|-------0----|
A |------------|------------|------------|------------|------------|
D |-4----------|-5----------|-5----------|-5----------|-5----------|

[Verse]

D |------------|------------|------------|------------|
A |----0-------|----0-------|----0-------|----0-------|
F#|----------1-|----------1-|----------3-|----------3-|
D |-------2----|-------2----|-------4----|-------4----|
A |------------|------------|------------|------------|
D |-2----------|-2----------|-4----------|-4----------|

D |------------|------------|------------|------------|
A |----0-------|----0-------|----0-------|----0-------|
F#|----------5-|----------5-|----------5-|----------5-|
D |-------0----|-------0----|-------0----|-------0----|
A |------------|------------|------------|------------|
D |-5----------|-5----------|-5----------|-5----------|

D |------------|------------|------------|------------|
A |----0-------|----0-------|----0-------|----0-------|
F#|----------1-|----------1-|----------3-|----------3-|
D |-------2----|-------2----|-------4----|-------4----|
A |------------|------------|------------|------------|
D |-2----------|-2----------|-4----------|-4----------|

D |------------|------------|------------|------------|
A |----0-------|----0-------|----0-------|----0-------|
F#|----------5-|----------5-|----------5-|----------5-|
D |-------0----|-------0----|-------0----|-------0----|
A |------------|------------|------------|------------|
D |-5----------|-5----------|-5----------|-5----------|

D |------------|------------|------------|------------|
A |----0-------|----0-------|----0-------|----0-------|
F#|----------1-|----------1-|----------3-|----------3-|
D |-------2----|-------2----|-------4----|-------4----|
A |------------|------------|------------|------------|
D |-2----------|-2----------|-4----------|-4----------|

D |------------|------------|------------|------------|
A |----0-------|----0-------|----0-------|----0-------|
F#|----------5-|----------5-|----------5-|----------5-|
D |-------0----|-------0----|-------0----|-------0----|
A |------------|------------|------------|------------|
D |-5----------|-5----------|-5----------|-5----------|

D |------------|------------|------------|------------|
A |----0-------|----0-------|----0-------|----0-------|
F#|----------5-|----------5-|----------5-|----------5-|
D |-------0----|-------0----|-------0----|-------0----|
A |------------|------------|------------|------------|
D |-5----------|-5----------|-5----------|-5----------|


[Chorus]

D |--------0-|-------------|---------------|--------------|------|--------------|-------------|--------------|
A |----------|----0--------|----0----------|----0---------|----0-|---0----------|---0---------|----0---------|
F#|----------|----------12-|------------10-|-----------10-|------|------------8-|-----------8-|------------10|
D |--------0-|-------0-----|-------11------|-------11-----|------|-------9------|-------9-----|--------11----|
A |----------|-------------|---------------|--------------|------|--------------|-------------|--------------|
D |-7-/-12---|-12----------|-11------------|-11-----------|-9----|-9------------|-9-----------|-11-----------|

D |--------0-|-------------|---------------|--------------|------|--------------|-------------|
A |----------|----0--------|----0----------|----0---------|----0-|---0----------|---0---------|
F#|----------|----------12-|------------10-|-----------10-|------|------------8-|-----------8-|
D |--------0-|-------0-----|-------11------|-------11-----|------|-------9------|-------9-----|
A |----------|-------------|---------------|--------------|------|--------------|-------------|
D |---12-----|-12----------|-11------------|-11-----------|-9----|-9------------|-9-----------|

D |------------|------------|------------|------------|
A |----0-------|----0-------|----0-------|----0-------|
F#|----------3-|----------5-|----------5-|----------5-|
D |-------4----|-------0----|-------0----|-------0----|
A |------------|------------|------------|------------|
D |-4----------|-5----------|-5----------|-5----------|

D |------------|------------|------------|------------|------------|
A |----0-------|----0-------|----0-------|----0-------|----0-------|
F#|----------3-|----------5-|----------5-|----------5-|----------5-|
D |-------4----|-------0----|-------0----|-------0----|-------0----|
A |------------|------------|------------|------------|------------|
D |-4----------|-5----------|-5----------|-5----------|-5----------|

[Verse]

D |------------|------------|------------|------------|
A |----0-------|----0-------|----0-------|----0-------|
F#|----------1-|----------1-|----------3-|----------3-|
D |-------2----|-------2----|-------4----|-------4----|
A |------------|------------|------------|------------|
D |-2----------|-2----------|-4----------|-4----------|

D |------------|------------|------------|------------|
A |----0-------|----0-------|----0-------|----0-------|
F#|----------5-|----------5-|----------5-|----------5-|
D |-------0----|-------0----|-------0----|-------0----|
A |------------|------------|------------|------------|
D |-5----------|-5----------|-5----------|-5----------|

D |------------|------------|------------|------------|
A |----0-------|----0-------|----0-------|----0-------|
F#|----------1-|----------1-|----------3-|----------3-|
D |-------2----|-------2----|-------4----|-------4----|
A |------------|------------|------------|------------|
D |-2----------|-2----------|-4----------|-4----------|

D |------------|------------|------------|------------|
A |----0-------|----0-------|----0-------|----0-------|
F#|----------5-|----------5-|----------5-|----------5-|
D |-------0----|-------0----|-------0----|-------0----|
A |------------|------------|------------|------------|
D |-5----------|-5----------|-5----------|-5----------|

D |------------|------------|------------|------------|
A |----0-------|----0-------|----0-------|----0-------|
F#|----------1-|----------1-|----------3-|----------3-|
D |-------2----|-------2----|-------4----|-------4----|
A |------------|------------|------------|------------|
D |-2----------|-2----------|-4----------|-4----------|

D |------------|------------|------------|------------|
A |----0-------|----0-------|----0-------|----0-------|
F#|----------5-|----------5-|----------5-|----------5-|
D |-------0----|-------0----|-------0----|-------0----|
A |------------|------------|------------|------------|
D |-5----------|-5----------|-5----------|-5----------|

D |------------|------------|------------|------------|
A |----0-------|----0-------|----0-------|----0-------|
F#|----------5-|----------5-|----------5-|----------5-|
D |-------0----|-------0----|-------0----|-------0----|
A |------------|------------|------------|------------|
D |-5----------|-5----------|-5----------|-5----------|

[Mandolin Solo Section]

D |--------0-|-------------|---------------|--------------|------|--------------|-------------|--------------|
A |----------|----0--------|----0----------|----0---------|----0-|---0----------|---0---------|----0---------|
F#|----------|----------12-|------------10-|-----------10-|------|------------8-|-----------8-|------------10|
D |--------0-|-------0-----|-------11------|-------11-----|------|-------9------|-------9-----|--------11----|
A |----------|-------------|---------------|--------------|------|--------------|-------------|--------------|
D |-7-/-12---|-12----------|-11------------|-11-----------|-9----|-9------------|-9-----------|-11-----------|

D |--------0-|-------------|---------------|--------------|------|--------------|-------------|
A |----------|----0--------|----0----------|----0---------|----0-|---0----------|---0---------|
F#|----------|----------12-|------------10-|-----------10-|------|------------8-|-----------8-|
D |--------0-|-------0-----|-------11------|-------11-----|------|-------9------|-------9-----|
A |----------|-------------|---------------|--------------|------|--------------|-------------|
D |---12-----|-12----------|-11------------|-11-----------|-9----|-9------------|-9-----------|

D |------------|------------|------------|------------|
A |----0-------|----0-------|----0-------|----0-------|
F#|----------3-|----------5-|----------5-|----------5-|
D |-------4----|-------0----|-------0----|-------0----|
A |------------|------------|------------|------------|
D |-4----------|-5----------|-5----------|-5----------|

D |------------|------------|------------|------------|------------|
A |----0-------|----0-------|----0-------|----0-------|----0-------|
F#|----------3-|----------5-|----------5-|----------5-|----------5-|
D |-------4----|-------0----|-------0----|-------0----|-------0----|
A |------------|------------|------------|------------|------------|
D |-4----------|-5----------|-5----------|-5----------|-5----------|

D |------------|------------|------------|------------|
A |----0-------|----0-------|----0-------|----0-------|
F#|----------1-|----------1-|----------3-|----------3-|
D |-------2----|-------2----|-------4----|-------4----|
A |------------|------------|------------|------------|
D |-2----------|-2----------|-4----------|-4----------|

D |------------|------------|------------|------------|
A |----0-------|----0-------|----0-------|----0-------|
F#|----------5-|----------5-|----------5-|----------5-|
D |-------0----|-------0----|-------0----|-------0----|
A |------------|------------|------------|------------|
D |-5----------|-5----------|-5----------|-5----------|

D |------------|------------|------------|------------|
A |----0-------|----0-------|----0-------|----0-------|
F#|----------1-|----------1-|----------3-|----------3-|
D |-------2----|-------2----|-------4----|-------4----|
A |------------|------------|------------|------------|
D |-2----------|-2----------|-4----------|-4----------|

D |------------|------------|------------|------------|
A |----0-------|----0-------|----0-------|----0-------|
F#|----------5-|----------5-|----------5-|----------5-|
D |-------0----|-------0----|-------0----|-------0----|
A |------------|------------|------------|------------|
D |-5----------|-5----------|-5----------|-5----------|

D |------------|------------|------------|------------|
A |----0-------|----0-------|----0-------|----0-------|
F#|----------1-|----------1-|----------3-|----------3-|
D |-------2----|-------2----|-------4----|-------4----|
A |------------|------------|------------|------------|
D |-2----------|-2----------|-4----------|-4----------|

D |------------|------------|------------|------------|
A |----0-------|----0-------|----0-------|----0-------|
F#|----------5-|----------5-|----------5-|----------5-|
D |-------0----|-------0----|-------0----|-------0----|
A |------------|------------|------------|------------|
D |-5----------|-5----------|-5----------|-5----------|

D |------------|------------|------------|------------|
A |----0-------|----0-------|----0-------|----0-------|
F#|----------1-|----------1-|----------3-|----------3-|
D |-------2----|-------2----|-------4----|-------4----|
A |------------|------------|------------|------------|
D |-2----------|-2----------|-4----------|-4----------|

D |------------|------------|------------|------------|
A |----0-------|----0-------|----0-------|----0-------|
F#|----------5-|----------5-|----------5-|----------5-|
D |-------0----|-------0----|-------0----|-------0----|
A |------------|------------|------------|------------|
D |-5----------|-5----------|-5----------|-5----------|

D |------------|------------|------------|------------|
A |----0-------|----0-------|----0-------|----0-------|
F#|----------5-|----------5-|----------5-|----------5-|
D |-------0----|-------0----|-------0----|-------0----|
A |------------|------------|------------|------------|
D |-5----------|-5----------|-5----------|-5----------|

[Bridge]

D |-------------|--------------|--------------|--------------|-------------|--------------|
A |----0--------|----0---------|----0---------|---0----------|---0---------|----0---------|
F#|----------12-|-----------12-|-----------10-|-----------10-|-----------8-|------------8-|
D |-------0-----|-------0------|-------0------|-------0------|-------9-----|--------9-----|
A |-------------|--------------|--------------|--------------|-------------|--------------|
D |-12----------|-12-----------|-10-----------|-10-----------|-9-----------|-9------------|

D |-------------|--------------|--------------|--------------|
A |----0--------|----0---------|----0---------|---0----------|
F#|-----------8-|------------8-|------------8-|------------8-|
D |-------0-----|-------0------|-------0------|-------0------|
A |-------------|--------------|--------------|--------------|
D |-8-----------|-8------------|-8------------|-8------------|

D |-------------|--------------|--------------|--------------|-------------|--------------|
A |----0--------|----0---------|----0---------|---0----------|---0---------|----0---------|
F#|-----------5-|------------5-|------------3-|------------3-|-----------3-|------------3-|
D |-------0-----|-------0------|-------4------|-------4------|-------0-----|--------0-----|
A |-------------|--------------|--------------|--------------|-------------|--------------|
D |-5-----------|-5------------|-4------------|-4------------|-3-----------|-3------------|

D |-------------|--------------|--------------|--------------|
A |----0--------|----0---------|----0---------|---0----------|
F#|-----------2-|------------2-|------------2-|------------2-|
D |-------0-----|-------0------|-------0------|-------0------|
A |-------------|--------------|--------------|--------------|
D |-2-----------|-2------------|-2------------|-2------------|

D |-------------|--------------|--------------|--------------|-0-|
A |----0--------|----0---------|----0---------|---0----------|-0-|
F#|-----------2-|------------2-|------------2-|------------2-|-0-|
D |-------0-----|-------0------|-------0------|-------0------|-0-|
A |-------------|--------------|--------------|--------------|-0-|
D |-2-----------|-2------------|-2------------|-2------------|-0-|

[Chorus]

D |--------0-|-------------|---------------|--------------|------|--------------|-------------|--------------|
A |----------|----0--------|----0----------|----0---------|----0-|---0----------|---0---------|----0---------|
F#|----------|----------12-|------------10-|-----------10-|------|------------8-|-----------8-|------------10|
D |--------0-|-------0-----|-------11------|-------11-----|------|-------9------|-------9-----|--------11----|
A |----------|-------------|---------------|--------------|------|--------------|-------------|--------------|
D |-7-/-12---|-12----------|-11------------|-11-----------|-9----|-9------------|-9-----------|-11-----------|

D |--------0-|-------------|---------------|--------------|------|--------------|-------------|
A |----------|----0--------|----0----------|----0---------|----0-|---0----------|---0---------|
F#|----------|----------12-|------------10-|-----------10-|------|------------8-|-----------8-|
D |--------0-|-------0-----|-------11------|-------11-----|------|-------9------|-------9-----|
A |----------|-------------|---------------|--------------|------|--------------|-------------|
D |---12-----|-12----------|-11------------|-11-----------|-9----|-9------------|-9-----------|

D |------------|------------|------------|------------|
A |----0-------|----0-------|----0-------|----0-------|
F#|----------3-|----------5-|----------5-|----------5-|
D |-------4----|-------0----|-------0----|-------0----|
A |------------|------------|------------|------------|
D |-4----------|-5----------|-5----------|-5----------|

D |------------|------------|------------|------------|------------|
A |----0-------|----0-------|----0-------|----0-------|----0-------|
F#|----------3-|----------5-|----------5-|----------5-|----------5-|
D |-------4----|-------0----|-------0----|-------0----|-------0----|
A |------------|------------|------------|------------|------------|
D |-4----------|-5----------|-5----------|-5----------|-5----------|

[Verse]

D |------------|------------|------------|------------|
A |----0-------|----0-------|----0-------|----0-------|
F#|----------1-|----------1-|----------3-|----------3-|
D |-------2----|-------2----|-------4----|-------4----|
A |------------|------------|------------|------------|
D |-2----------|-2----------|-4----------|-4----------|

D |------------|------------|------------|------------|
A |----0-------|----0-------|----0-------|----0-------|
F#|----------5-|----------5-|----------5-|----------5-|
D |-------0----|-------0----|-------0----|-------0----|
A |------------|------------|------------|------------|
D |-5----------|-5----------|-5----------|-5----------|

D |------------|------------|------------|------------|
A |----0-------|----0-------|----0-------|----0-------|
F#|----------1-|----------1-|----------3-|----------3-|
D |-------2----|-------2----|-------4----|-------4----|
A |------------|------------|------------|------------|
D |-2----------|-2----------|-4----------|-4----------|

D |------------|------------|------------|------------|
A |----0-------|----0-------|----0-------|----0-------|
F#|----------5-|----------5-|----------5-|----------5-|
D |-------0----|-------0----|-------0----|-------0----|
A |------------|------------|------------|------------|
D |-5----------|-5----------|-5----------|-5----------|

D |------------|------------|------------|------------|
A |----0-------|----0-------|----0-------|----0-------|
F#|----------1-|----------1-|----------3-|----------3-|
D |-------2----|-------2----|-------4----|-------4----|
A |------------|------------|------------|------------|
D |-2----------|-2----------|-4----------|-4----------|

D |------------|------------|------------|------------|
A |----0-------|----0-------|----0-------|----0-------|
F#|----------5-|----------5-|----------5-|----------5-|
D |-------0----|-------0----|-------0----|-------0----|
A |------------|------------|------------|------------|
D |-5----------|-5----------|-5----------|-5----------|

D |------------|------------|------------|------------|
A |----0-------|----0-------|----0-------|----0-------|
F#|----------5-|----------5-|----------5-|----------5-|
D |-------0----|-------0----|-------0----|-------0----|
A |------------|------------|------------|------------|
D |-5----------|-5----------|-5----------|-5----------|

[Outro]

D |------------|------------|------------|------------|-0-|
A |----0-------|----0-------|----0-------|----0-------|-0-|
F#|----------5-|----------5-|----------5-|----------5-|-0-|
D |-------0----|-------0----|-------0----|-------0----|-0-|
A |------------|------------|------------|------------|-0-|
D |-5----------|-5----------|-5----------|-5----------|-0-|

END

************************************

| /   Slide up

************************************

            
            
Suggest correction
Creating personal tab
Creating personal tab
You can edit any tab online and save it as your Personal.

You can edit, replace or remove any tab part or add personal notes – all changes will be seen only by you.

Personal tabs can be accessed anytime from any device, even offline.
Learn more »
Give kudos to tab author, rate the tab!
1 2 3 4 5
comments
print report bad tab
guest
You may want to rate the tab now too:
select rating
Wanna post a correction for this tab? Suggest correction