Oops, an error
Loading. Please wait.

Autonomy Boy tab

version 1
version 1

Whole song

Interactive

393 views 3 this week
no commentswrite comment
1 2 3 4 5
3 more votes to show rating
add to favorites
×
Save as Personal and add changes to this tab that will be seen only by you. Learn more ›
×
You can save this tab as Personal to edit and correct it or add notes. All changes will be seen only by you. Learn more »
launch autoscroll
font size
0
reset
how to read this tab
guitar tuner
edit
Autoscroll
slow
fast
+/-
esc
set tempo
stop
Author
Artist: The Long Blondes    http://www.thelongblondes.co.uk/
Track: Autonomy Boy
Tabber: Woodshed


INTRO

e|---5-5---------------5-5-------------------------------------------------|
B|---6-6-----6-6-------6-6-----6-6-----------------------------------------|
G|-------7-7-7-7-----------7-7-7-7--x-x-x-x-x-x-x-x-x-x--------------------|
D|-------------------------------------------------------------------------|
A|-------------------------------------------------------------------------|
E|-------------------------------------------------------------------------|



e|---/5-5------------------------------------------------------------------|
B|---/6-6------6-6---------------------------------------------------------|
G|---------7-7-7-7--x-x-x-x-x-x-x-x-x-x------------------------------------|
D|-------------------------------------------------------------------------|
A|-------------------------------------------------------------------------|
E|-------------------------------------------------------------------------|

e|----5-5------------------------------------------------------------------|
B|--0-6-6------6-6---------------------------------------------------------|
G|--0------7-7-7-7--x-x-x-7-7-7-7-7-7-7------------------------------------|
D|-------------------------------------------------------------------------|
A|-------------------------------------------------------------------------|
E|-------------------------------------------------------------------------|


VERSE 1

Riff A
e|---/5-5------------------------------------------------------------------|
B|---/6-6------6-6---------------------------------------------------------|
G|---------7-7-7-7--x-x-x-x-x-x-x-x-x-x------------------------------------|
D|-------------------------------------------------------------------------|
A|-------------------------------------------------------------------------|
E|-------------------------------------------------------------------------|
The girl's well read

Riff A
Of pale white skin

Riff A
You cut your arms 

e|----5-5------------------------------------------------------------------|
B|--0-6-6------6-6---------------------------------------------------------|
G|---------7-7-7-7--x-x-x-7-7-7-7-7-7\-------------------------------------|
D|-------------------------------------------------------------------------|
A|-------------------------------------------------------------------------|
E|-------------------------------------------------------------------------|
Baby, just to fit in


PRE-CHORUS

e|--5-5------5-5-----------------------------------------------------------|
B|--6-6------6-6-5-5-------------------------------------------------------|
G|------7-7-----------6--6-----5-7-7---------------------------------------|
D|--------------------------7----------------------------------------------|
A|-------------------------------------------------------------------------|
E|-------------------------------------------------------------------------|
You say that you like to be on your own

e|--5----------------------------------------------------------------------|
B|--6--------6-6-5-5-------------------------------------------------------|
G|------7-7------------6-6-6-6-------5-7-----------------------------------|
D|--------------------------------7----------------------------------------|
A|-------------------------------------------------------------------------|
E|-------------------------------------------------------------------------|
But it's calm right now and a long walk home

e|-------------------------------------------------------------------------|
B|--------6--5-5-----------------------------------------------------------|
G|---7-7-----------6-6-6-6-------5-7-7-------------------------------------|
D|---------------------------7---------------------------------------------|
A|-------------------------------------------------------------------------|
E|-------------------------------------------------------------------------|
You can't go on calling human hands

e|---5---------------------------------------------------------------------|
B|---6-------6-6-5-5-------------------------------------------------------|
G|------7-7-----------6-6-6-6-6-6-6-6--------------------------------------|
D|-------------------------------------------------------------------------|
A|-------------------------------------------------------------------------|
E|-------------------------------------------------------------------------|
But I'm here so you might as well have me, have me


CHORUS

Dm (x57765)
Autonomy boy you're so naive

Dm
With your heart on your sleeve

                      Bm (799777)
And your long head of hair

                                            Dm
I find it very rude that you didn't think I care

Dm
Autonomy boy you got me making vows

Dm
In the back of a cab on the way out of here

Bm                                              Dm
And I find it very rude that you didn't think I care

Riff B
e|--5-5--------------------------------------------------------------------|
B|--6-6------6-6-5-5-------------------------------------------------------|
G|------7-7------------6-6-6-6------5-7-7----------------------------------|
D|-------------------------------7-----------------------------------------|
A|-------------------------------------------------------------------------|
E|-------------------------------------------------------------------------|

x2


VERSE 2 
Riff A
Laced up, bunged up

Riff A
Tied up tight

Riff A
I like a man in uniform

e|----5-5------------------------------------------------------------------|
B|--0-6-6------6-6---------------------------------------------------------|
G|---------7-7-7-7--x-x-x-7-7-7-7-7-7\-------------------------------------|
D|-------------------------------------------------------------------------|
A|-------------------------------------------------------------------------|
E|-------------------------------------------------------------------------|
But that's not right


PRE-CHORUS

Riff B
You say that you like to be on your own

Riff B
But it's calm right now and a long walk home

Riff B
You can't human hands

e|---5---------------------------------------------------------------------|
B|---6-----6-6-5-5---------------------------------------------------------|
G|-----7-7-----------6-6-6-6-6-6-6-6---------------------------------------|
D|-------------------------------------------------------------------------|
A|-------------------------------------------------------------------------|
E|-------------------------------------------------------------------------|
But I'm here so you might as well have me, have me

CHORUS

Dm
Autonomy boy you're so naive

Dm
With your heart on your sleeve

                      Bm
And your long head of hair

                                            Dm
I find it very rude that you didn't think I care

Dm
Autonomy boy you got me making vows

Dm
In the back of a cab on the way out of here

Bm                                              Dm
And I find it very rude that you didn't think I care


Riff B x2

SOLO

With feedback and handling noise


Dm

e|----5--------------------------------------------------------------------|
B|----------------6-6-5-----5b6-------------------------6-6-5--------------|
G|-------------7----------------------------x--x---7-7-----------7---------|
D|-------------------------------------------------------------------------|
A|-------------------------------------------------------------------------|
E|-------------------------------------------------------------------------|

e|-------------------------------------------------------------------------|
B|----------6-6-5------------6-6-5--------------6-6-5----------------------|
G|----7-7----------7----7-7---------7------7-7----------7------------------|
D|-------------------------------------------------------------------------|
A|-------------------------------------------------------------------------|
E|-------------------------------------------------------------------------|

Feedback


CHORUS

Dm
Autonomy boy you're so naive

Dm
With your heart on your sleeve

                      Bm
And your long head of hair

                                            Dm
I find it very rude that you didn't think I care

Dm
Autonomy boy you got me making vows

Dm
In the back of a cab on my way out of here

Bm                                              Dm
And I find it very rude that you didn't think I care
Dm
Autonomy boy you're so naive

Dm
With your heart on your sleeve

                      Bm
And your long head of hair

                                            Dm
I find it very rude that you didn't think I care

Dm
Autonomy boy you got me making vows

Dm
In the back of a cab on my way out of here

Bm                                              Dm
And I find it very rude that you didn't think I care


OUTRO

Dm with feedback

            
            
Suggest correction
Creating personal tab
Creating personal tab
You can edit any tab online and save it as your Personal.

You can edit, replace or remove any tab part or add personal notes – all changes will be seen only by you.

Personal tabs can be accessed anytime from any device, even offline.
Learn more »
Give kudos to tab author, rate the tab!
1 2 3 4 5
comments
print report bad tab
guest
You may want to rate the tab now too:
select rating
Wanna post a correction for this tab? Suggest correction