Oops, an error
Loading. Please wait.

A Quiet Life bass

405 views 1 this week
no commentswrite comment
1 2 3 4 5
3 more votes to show rating
add to favorites
×
Save as Personal and add changes to this tab that will be seen only by you. Learn more ›
×
You can save this tab as Personal to edit and correct it or add notes. All changes will be seen only by you. Learn more »
launch autoscroll
font size
0
reset
guitar tuner
edit
Autoscroll
slow
fast
+/-
esc
set tempo
stop
---------------------------------------------------------------------                
A Quiet Life - The Longcut
---------------------------------------------------------------------
great new british band and great song. i saw them on mtv2 britain's
spanking new music show and thought i had 2 tab this.

Tabbed By : tom c

play with distortion

Tuning:GDAE

Intro (00:14):
G|--------------------|
D|--------------------| x4     Not sure if its right but it sounds gd anyway
A|--------------------|
E|--5b-5b-5b-5b-5-5---|

Verse:
G|------------------------------------------------------------------------|
D|------------------------------------------------------------------------|
A|------------------------------------------------10-10-10p9--------------|
E|55555555/8-8-8-8p7-7-7-7h8p7--5-5-5-5-5-5-5-5/------------10-10-10-10p9-|

Until 2:21 when it goes
G|------------------------------------------------------------|
D|------------------------------------------------------------| x2
A|----------------------------10-10-101010p9------------------|
E|--5-5-7-8-7-5--5-5-7-8-7-5—---------------10-10-101010p9----|

G|-------------------------------------------------|
D|-------------------------------------------------| x4
A|-------------------------------------------------|
E|--555555555555555h6/1313131313131313131313p12----|
    
   -------------short break---------------

3:08
G|------------------------------------------------------------|
D|------------------------------------------------------------| x4
A|----------------------------10-10-101010p9------------------|
E|--5-5-7-8-7-5--5-5-7-8-7-5—---------------10-10-101010p9----|


G|-------------------------------------------------|
D|-------------------------------------------------| x8
A|-------------------------------------------------|
E|--555555555555555h6/1313131313131313131313p12----|


let last 12 ring



| /  slide up
| \  slide down
| h  hammer-on
| p  pull-off
| b  bend
===============================================================================

            
            
Suggest correction
Creating personal tab
Creating personal tab
You can edit any tab online and save it as your Personal.

You can edit, replace or remove any tab part or add personal notes – all changes will be seen only by you.

Personal tabs can be accessed anytime from any device, even offline.
Learn more »
Give kudos to tab author, rate the tab!
1 2 3 4 5
comments
print report bad tab
guest
Wanna post a correction for this tab? Suggest correction