Oops, an error
Loading. Please wait.

Wrong Choice tab

1,197 views 1 this week
no commentswrite comment
1 2 3 4 5
3 more votes to show rating
add to favorites
×
Save as Personal and add changes to this tab that will be seen only by you. Learn more ›
×
You can save this tab as Personal to edit and correct it or add notes. All changes will be seen only by you. Learn more »
launch autoscroll
font size
0
reset
how to read this tab
guitar tuner
edit
Autoscroll
slow
fast
+/-
esc
set tempo
stop
Author
This is my first tab and I think it's pretty accurate. It's in standard tuning and
no capos or anything like that. There's no other versions of this song up that I'm aware of
I figured this is better than nothing. I'm no good at working out chords though so I'm 
pleaing for anyone who can work them out to put them on here!

Intro:
Initially the song begins with just these two sections being looped:

 5-5-5-5-3-3-3-3-2-2-2-2-2-2-2-2-|
 --------------------------------|
 --------------------------------|
 --------------------------------|
 --------------------------------|
 --------------------------------|

 --10--10--10--10--10--10--10--10--10--10--10--10-|
 10--10--10--10--8---8---8---8--------------------|
 --------------------------------11--11--11--11---|
 -------------------------------------------------|
 -------------------------------------------------|
 -------------------------------------------------|

This is played twice by itself, and then this riff comes in:

 5-5-5-8-8-5-5-5-8-8-5-5-5-8-8-5-5-3-3-0-0------------------|
 -----------------------------------------3-3-1-3-1-1-1-3-1-|
 --------------------------------------------------2-2------|
 -----------------------------------------------------------|
 -----------------------------------------------------------|
 -----------------------------------------------------------|

 ----------------------|
 ----------------------|
 2-2-0-0---------------|
 --------2-2-0---------|
 --------------3-3-2-0-|
 ----------------------|

This is played twice, then it goes back to how it was originally - just the two intro
It carries on this way for four repeats.

This is the part I'm unsure of. I only have an acoustic guitar so sometimes it's a bit
to tell if what I'm playing is correct or not.

 10-------10-----10---------|
 --10-8-10--10-7---8-8-10-7-|
 ---------------------------|
 ---------------------------|
 ---------------------------|
 ---------------------------|

 10-------10-----10-------10-----|
 --10-8-10--10-7---10-8-10--10-7-|
 --------------------------------|
 --------------------------------|
 --------------------------------|
 --------------------------------|

10-------10-----10----------|
 --10-8-10--10-7---8-8-10-7-|
 ---------------------------|
 ---------------------------|
 ---------------------------|
 ---------------------------|

 10-------10-----10-------10-----|
 --10-8-10--10-7---10-8-10--10-7-|
 --------------------------------|
 --------------------------------|
 --------------------------------|
 --------------------------------|

I think that the chords used for the verse are B-minor#, F# and G.

For the "Oh no, tears to drown us in..." etc, section I think it's the same chords but
to make it F#, G and B-minor#.

http://www.thelovelyfeathers.com/

            
            
Suggest correction
Creating personal tab
Creating personal tab
You can edit any tab online and save it as your Personal.

You can edit, replace or remove any tab part or add personal notes – all changes will be seen only by you.

Personal tabs can be accessed anytime from any device, even offline.
Learn more »
Give kudos to tab author, rate the tab!
1 2 3 4 5
comments
print report bad tab
guest
You may want to rate the tab now too:
select rating
Wanna post a correction for this tab? Suggest correction