Oops, an error
Loading. Please wait.

Slow It Down tab

68,517 views 60 this week
no commentswrite comment
1 2 3 4 5
x 30
add to favorites
×
Save as Personal and add changes to this tab that will be seen only by you. Learn more ›
×
You can save this tab as Personal to edit and correct it or add notes. All changes will be seen only by you. Learn more »
launch autoscroll
font size
0
reset
how to read this tab
guitar tuner
edit
Autoscroll
slow
fast
+/-
esc
set tempo
stop
[Intro]

e|-----0-0-0-0|-0-0-0-0-0-|-0-0-0-0-0-|
B|-----1-1-1-1|-1-1-1-1-1-|-1-1-1-1-1-|
G|-----2-2-2-2|-0-0-0-0-0-|-0-2-2-2-2-|
D|-----0-0-0-0|-0-2-2-2-2-|-0-0-0-0-0-|       Repeat until you want to really start the song
A|---3-3-3-3-3|-3-3-3-3-3-|-3-3-3-3-3-|
E|-3---3-3-3-3|-3-3-3-3-3-|-3-3-3-3-3-|


[Verse 1]

            C              C                       F                     Am              G
e|-----0-0-0-0|-0-0-0-0-0-|-0-0-0-0-0-|-0-0-0-0-0|-0-3-3-3-3-|
B|-----1-1-1-1|-1-1-1-1-1-|-0-1-1-1-1-|-0-1-1-1-1|-0-3-3-3-3-|
G|-----2-2-2-2|-0-0-0-0-0-|-0-2-2-2-2-|-0-2-2-2-2|-0-0-0-0-0-|
D|-----0-0-0-0|-0-2-2-2-2-|-0-3-3-3-3-|-0-2-2-2-2|-0-0-0-0-0-|      
A|---3-3-3-3-3|-3-3-3-3-3-|-0-3-3-3-3-|-0-0-0-0-0|-0-2-2-2-2-|
E|-3---3-3-3-3|-3-3-3-3-3-|-0-0-0-0-0-|-0-0-0-0-0|-0-3-3-3-3-|

I feel her filth in my bones
Wash off my hands til its gone
The walls theyre closing in
With velvet curtains


[Verse 2]

            C              C                       F                     Am              G
e|-----0-0-0-0|-0-0-0-0-0-|-0-0-0-0-0-|-0-0-0-0-0|-0-3-3-3-3-|
B|-----1-1-1-1|-1-1-1-1-1-|-0-1-1-1-1-|-0-1-1-1-1|-0-3-3-3-3-|
G|-----2-2-2-2|-0-0-0-0-0-|-0-2-2-2-2-|-0-2-2-2-2|-0-0-0-0-0-|
D|-----0-0-0-0|-0-2-2-2-2-|-0-3-3-3-3-|-0-2-2-2-2|-0-0-0-0-0-|      
A|---3-3-3-3-3|-3-3-3-3-3-|-0-3-3-3-3-|-0-0-0-0-0|-0-2-2-2-2-|
E|-3---3-3-3-3|-3-3-3-3-3-|-0-0-0-0-0-|-0-0-0-0-0|-0-3-3-3-3-|

Some love was made for the light
Some kiss your cheek and goodnight
Lift up a red high heel
Lock up your doors with steel


[Verse 3]

            C              C                       F                     Am              G
e|-----0-0-0-0|-0-0-0-0-0-|-0-0-0-0-0-|-0-0-0-0-0|-0-3-3-3-3-|
B|-----1-1-1-1|-1-1-1-1-1-|-0-1-1-1-1-|-0-1-1-1-1|-0-3-3-3-3-|
G|-----2-2-2-2|-0-0-0-0-0-|-0-2-2-2-2-|-0-2-2-2-2|-0-0-0-0-0-|
D|-----0-0-0-0|-0-2-2-2-2-|-0-3-3-3-3-|-0-2-2-2-2|-0-0-0-0-0-|      
A|---3-3-3-3-3|-3-3-3-3-3-|-0-3-3-3-3-|-0-0-0-0-0|-0-2-2-2-2-|
E|-3---3-3-3-3|-3-3-3-3-3-|-0-0-0-0-0-|-0-0-0-0-0|-0-3-3-3-3-|

Theyre makin noise in my street
My blinds are drawn i cant see
Smashed in my car window
Didnt touch the stereo


[Chorus]

        F      Am      G     C
e|---0-0-0-0-|-3-3-0-0-0-|
B|---1-1-1-1-|-3-3-1-1-1-|
G|---2-2-2-2-|-0-0-0-0-0-|
D|---3-3-2-2-|-0-0-2-2-2-|    
A|---3-3-0-0-|-2-2-3-3-3-|
E|---0-0-0-0-|-3-3-3-3-3-|

Slow it down, Angie come back to bed
Rest your arms, and rest your legs


[Verse 4]

            C              C                       F                     Am              G
e|-----0-0-0-0|-0-0-0-0-0-|-0-0-0-0-0-|-0-0-0-0-0|-0-3-3-3-3-|
B|-----1-1-1-1|-1-1-1-1-1-|-0-1-1-1-1-|-0-1-1-1-1|-0-3-3-3-3-|
G|-----2-2-2-2|-0-0-0-0-0-|-0-2-2-2-2-|-0-2-2-2-2|-0-0-0-0-0-|
D|-----0-0-0-0|-0-2-2-2-2-|-0-3-3-3-3-|-0-2-2-2-2|-0-0-0-0-0-|      
A|---3-3-3-3-3|-3-3-3-3-3-|-0-3-3-3-3-|-0-0-0-0-0|-0-2-2-2-2-|
E|-3---3-3-3-3|-3-3-3-3-3-|-0-0-0-0-0-|-0-0-0-0-0|-0-3-3-3-3-|

Act like youve been here before
Smile less and dress up some more
Tie up your scarf real tight
These boys are out for blood tonight


[Chorus]

        F      Am      G     C
e|---0-0-0-0-|-3-3-0-0-0-|
B|---1-1-1-1-|-3-3-1-1-1-|
G|---2-2-2-2-|-0-0-0-0-0-|
D|---3-3-2-2-|-0-0-2-2-2-|    
A|---3-3-0-0-|-2-2-3-3-3-|
E|---0-0-0-0-|-3-3-3-3-3-|

Slow it down, and you come back to bed
Rest your arms, and rest your legs


[Verse 5]

            C              C                       F                     Am              G
e|-----0-0-0-0|-0-0-0-0-0-|-0-0-0-0-0-|-0-0-0-0-0|-0-3-3-3-3-|
B|-----1-1-1-1|-1-1-1-1-1-|-0-1-1-1-1-|-0-1-1-1-1|-0-3-3-3-3-|
G|-----2-2-2-2|-0-0-0-0-0-|-0-2-2-2-2-|-0-2-2-2-2|-0-0-0-0-0-|
D|-----0-0-0-0|-0-2-2-2-2-|-0-3-3-3-3-|-0-2-2-2-2|-0-0-0-0-0-|      
A|---3-3-3-3-3|-3-3-3-3-3-|-0-3-3-3-3-|-0-0-0-0-0|-0-2-2-2-2-|
E|-3---3-3-3-3|-3-3-3-3-3-|-0-0-0-0-0-|-0-0-0-0-0|-0-3-3-3-3-|

And when she stood she stood tall
Shell make a fool of you all
Dont ask for cigarettes
She aint got nothin left for you


[Verse 6]

            C              C                       F                     Am              G
e|-----0-0-0-0|-0-0-0-0-0-|-0-0-0-0-0-|-0-0-0-0-0|-0-3-3-3-3-|
B|-----1-1-1-1|-1-1-1-1-1-|-0-1-1-1-1-|-0-1-1-1-1|-0-3-3-3-3-|
G|-----2-2-2-2|-0-0-0-0-0-|-0-2-2-2-2-|-0-2-2-2-2|-0-0-0-0-0-|
D|-----0-0-0-0|-0-2-2-2-2-|-0-3-3-3-3-|-0-2-2-2-2|-0-0-0-0-0-|      
A|---3-3-3-3-3|-3-3-3-3-3-|-0-3-3-3-3-|-0-0-0-0-0|-0-2-2-2-2-|
E|-3---3-3-3-3|-3-3-3-3-3-|-0-0-0-0-0-|-0-0-0-0-0|-0-3-3-3-3-|

I never, she never, we never looked back
That wasnt what we were good at
And when it came to love
We were not good enough


[Chorus]

        F      Am      G     C
e|---0-0-0-0-|-3-3-0-0-0-|
B|---1-1-1-1-|-3-3-1-1-1-|
G|---2-2-2-2-|-0-0-0-0-0-|
D|---3-3-2-2-|-0-0-2-2-2-|    
A|---3-3-0-0-|-2-2-3-3-3-|
E|---0-0-0-0-|-3-3-3-3-3-|

Slow it down, and you come back to bed
Rest your arms, and rest your legs


[Outro]

(same chords as the verse):

            C              C                       F                     Am              G
e|-----0-0-0-0|-0-0-0-0-0-|-0-0-0-0-0-|-0-0-0-0-0|-0-3-3-3-3-|
B|-----1-1-1-1|-1-1-1-1-1-|-0-1-1-1-1-|-0-1-1-1-1|-0-3-3-3-3-|
G|-----2-2-2-2|-0-0-0-0-0-|-0-2-2-2-2-|-0-2-2-2-2|-0-0-0-0-0-|
D|-----0-0-0-0|-0-2-2-2-2-|-0-3-3-3-3-|-0-2-2-2-2|-0-0-0-0-0-|      
A|---3-3-3-3-3|-3-3-3-3-3-|-0-3-3-3-3-|-0-0-0-0-0|-0-2-2-2-2-|
E|-3---3-3-3-3|-3-3-3-3-3-|-0-0-0-0-0-|-0-0-0-0-0|-0-3-3-3-3-|

Dont you frown when youre feelin like that
Only love can dig you out of this

            
            
Suggest correction
Creating personal tab
Creating personal tab
You can edit any tab online and save it as your Personal.

You can edit, replace or remove any tab part or add personal notes – all changes will be seen only by you.

Personal tabs can be accessed anytime from any device, even offline.
Learn more »
comments
print report bad tab
guest
You may want to rate the tab now too:
select rating
Wanna post a correction for this tab? Suggest correction