Oops, an error
Loading. Please wait.

Tiny Anthem chords

747 views 1 this week
2 commentsread comments
1 2 3 4 5
1 last vote to show rating
add to favorites
×
Save as Personal and add changes to this tab that will be seen only by you. Learn more ›
×
You can save this tab as Personal to edit and correct it or add notes. All changes will be seen only by you. Learn more »
launch autoscroll
font size
0
reset
transpose
0
reset
display chords
guitar tuner
edit
Autoscroll
slow
fast
+/-
esc
set tempo
stop
Author
Difficulty
Strumming
There is no strumming pattern for this song yet. and get +5 IQ
The M Machine - Tiny Anthem


Bb - 113331
Cm - 335543
Gm - 355333
Eb - 668886


Bb              Cm
     Here I go again
                        Gm
Better off this way for now
     Eb
So let go
Bb              Cm
 And here I go again
                        Gm
Better off this way for now
     Eb
So let go

Bb          Cm              Gm
      Hey! Dragging me that way
    Eb                          Bb
But I can't feel your eyes upon my skin
            Cm            Gm
      Hey! Begging me to stay here
    Eb                                Bb
But I can't stop the rain from coming in

    Cm                                Gm
No, I can't stop the rain from coming in.
    Eb
No, I can't stop the rain from coming...

Bb Cm Gm Eb


EXTRA:
The intro:

E|--------------------------------|
B|--------------------------------|
G|--3---3---5---5-----------8---8-|
D|-3---3---5---5----5---5--8---8--|  
A|1---1---3---3----5---5--6---6---|
E|----------------3---3-----------|

The keyboard:

E|--------------------------------|--------------------------------|
B|----------------3-----------1-3-|----------------3-----------1---|
G|3-------------------------------|3-------------------------------|
D|------------3-------------------|------------3-------------------|  
A|--------------------------------|--------------------------------|
E|--------------------------------|--------------------------------|

http://www.the-m-machine.com/

            
            
Suggest correction
Creating personal tab
Creating personal tab
You can edit any tab online and save it as your Personal.

You can edit, replace or remove any tab part or add personal notes – all changes will be seen only by you.

Personal tabs can be accessed anytime from any device, even offline.
Learn more »
Give kudos to tab author, rate the tab!
1 2 3 4 5
comments
print report bad tab
2 comments total.
0 reply
gentlyweeps46 69 Dec 10, 2013 01:55 PM, edited on December 16 2013, 04:09 pm

i got the trumpet solo
e|-6-8-10-6-8-10-6-8-10~---6-8-10-10-11-10-11-10-8-----------|
b|------------------------------------------------------------------------6--------|

e|----6-8-10-8-6-8------------------6-9-8-6-8-6----|
b|-6------------------------7~--6-7----------------------|

i'm pretty sure it's something like that

0 reply
gentlyweeps46 69 Dec 10, 2013 02:17 PM, edited on December 16 2013, 04:07 pm

heres somethinge|6-8-10-6-8-10-6-8-10~---6-8-10-10-11-10-11-10-8-----------|b|-------------------------------------------------6--------|e|--6-8-10-8-6-8--------6-9-8-6-8-6----|b|-6-----------7~--6-7---------------|
i'm pretty sure it's something like that

guest
You may want to rate the tab now too:
select rating
Wanna post a correction for this tab? Suggest correction