Oops, an error
Loading. Please wait.

About Your Dress tab

version 3
version 3

Whole song

6,459 views 1 this week
no commentswrite comment
1 2 3 4 5
x 5
add to favorites
×
Save as Personal and add changes to this tab that will be seen only by you. Learn more ›
×
You can save this tab as Personal to edit and correct it or add notes. All changes will be seen only by you. Learn more »
launch autoscroll
font size
0
reset
how to read this tab
guitar tuner
edit
Autoscroll
slow
fast
+/-
esc
set tempo
stop
Author
class tune, the guitar is fast, its very nice sounding guitar though, so settings should 
acoustic on the guitar pedal!

it might sound incorrect just you playing to yourself right now, you need a band in 
to make it sound right! because the most impressive thing about the song is the drums!

-------------------------------------------|
-------------------------------------------|
-------------------------------------------|
-----10-10-----10-10-----------------------|
-8-8-------8-8-----------10-10------7-7----|
---------------------8-8--------8-8--------|

repeat ^^^^  (its quite an important riff)

its just what all young lovers doo

---------------------------------|
---------------------------------|
-10-10---10-10---------9-9-------|
-10-10---10-10--10-10--9-9-------|
-8--8----8--8---10-10--7-7-------|
----------------8--8-------------|

scratch inbetween, listen to song to know when to play it


through the verses there isnt much guitar, mostly drums, heavy bassline

the guitar bits are only little fillers to make it sound nice

for example

i noticed you...
---------10------------|
-------------10--------|
-----10----------------|
--10-------------------|
-----------------------|
-----------------------|


you stood out like a sore thumb, the most beautiful sore thumb i ever seen
-------------------------10-10-10-10-----------------|
--------------------------------------10-10-10-10----|
-10-10-10-10-10-10-10-10-----------------------------|
-----------------------------------------------------|
-----------------------------------------------------|
-----------------------------------------------------|
(best to bar the tenth fret here, you can also use the the tenth fret to do little fills 
they do in the verses)

--8-------8------7------|
--10------8------9------|
--10------9------9------|
--10-----10------9------|
--8------10------7------|
----------8-------------|

make sure the high strings is the most heard here!


play around with the chords and riffs that i have given, its very easy to get the 
of the song because the maccabees have easy enough paterns to follow, its just that the stuff 
play can be so f**kin technical!

thank you, since i am the first person to tab the album version, i expect good feedback!!!

            
            
Suggest correction
Creating personal tab
Creating personal tab
You can edit any tab online and save it as your Personal.

You can edit, replace or remove any tab part or add personal notes – all changes will be seen only by you.

Personal tabs can be accessed anytime from any device, even offline.
Learn more »
comments
print report bad tab
guest
You may want to rate the tab now too:
select rating
Wanna post a correction for this tab? Suggest correction