Oops, an error
Loading. Please wait.

All In Your Rows bass

version 2
version 2

Whole song

408 views 6 this week
no commentswrite comment
1 2 3 4 5
3 more votes to show rating
add to favorites
×
Save as Personal and add changes to this tab that will be seen only by you. Learn more ›
×
You can save this tab as Personal to edit and correct it or add notes. All changes will be seen only by you. Learn more »
launch autoscroll
font size
0
reset
guitar tuner
edit
Autoscroll
slow
fast
+/-
esc
set tempo
stop
Author
Difficulty
Intro\Verse:

G---------2---1---------------|
D-----------------4-----------|
A-----0-0---0---0----0---5-4--| X4
E-----------------------------|

Bridge Thing: (the rythm here is kinda different than I've tabbed but it's relatively 
to figure out)

G-----------------------------------------|
D-----------------------------------------|
A-0-0-0-0-0-0-0-0-12-12-12-12-12-12-12-12-|
E-----------------------------------------|

G-----------------------------------------|
D-----------------------------------------|
A-0-0-0-0-0-0-0-0-0-0-0-0-0-0-0-0-0-0-0-0-|
E-----------------------------------------|

two of that, then:

Chorus:

G-----------------------------------------|
D-----------------------------------------|
A-0-0-0-0-0-0-0-0-12-12-12-12-12-12-12-12-|
E-----------------------------------------|

G---------14---13------------------------|
D-------------------16-------------------|
A-----0-0---0-----0-----0------17---16---|
E----------------------------------------|

Two of that as well

Verse X4

Chorus X2

back to Verse X8

Chorus X2

Breakdown thing: (not really sure 0f this one)

G------------------2p1------------------------2p1----|
D-----------------------4--------------------------4-|
A--0-0-0-0-0-0-0-0---------5-5-5-5-5-5-5-5-----------|
E----------------------------------------------------|

It might be this though:

G-------2---1-----------13-----14-|
D-------------------16-----16-----|
A---0-0---0----0------------------|
E---------------------------------|

Chorus: X2

Then verse till end

            
            
Suggest correction
Creating personal tab
Creating personal tab
You can edit any tab online and save it as your Personal.

You can edit, replace or remove any tab part or add personal notes – all changes will be seen only by you.

Personal tabs can be accessed anytime from any device, even offline.
Learn more »
Give kudos to tab author, rate the tab!
1 2 3 4 5
comments
print report bad tab
guest
You may want to rate the tab now too:
select rating
Wanna post a correction for this tab? Suggest correction