Oops, an error
Loading. Please wait.

First Love tab

version 2
version 2

Whole song

13,085 views 1 this week
3 commentsread comments
1 2 3 4 5
x 5
add to favorites
×
Save as Personal and add changes to this tab that will be seen only by you. Learn more ›
×
You can save this tab as Personal to edit and correct it or add notes. All changes will be seen only by you. Learn more »
launch autoscroll
font size
0
reset
how to read this tab
guitar tuner
edit
Autoscroll
slow
fast
+/-
esc
set tempo
stop
Author
Difficulty
The Maccabees - First Love

i think its all correct. any ratings or feedback or whatever would be great cos it took 
ages :) thanks

INTRO

(PALM MUTED)

(A)
-0--x--x--|
-2--x--x--|
-2--x--x--|
-2--4--6--| X2
-0--4--6--|
-0--2--6--|

-14------------------|
-------10---------10-|
-------------7-------|
---------------------|
---------------------|
---------------------|

-14-14-14-14-14-14-14-14-----------------------------------------------------------------|
-------------------------10-10-10-10-10-10-10-10-----------------10-10-10-10-10-10-10-10-|
-------------------------------------------------7-7-7-7-7-7-7-7-------------------------|
-----------------------------------------------------------------------------------------|
-----------------------------------------------------------------------------------------|
-----------------------------------------------------------------------------------------|

-14-14-14-14-14-14-14-14---------------------------------------------------------|
-------------------------10-10-10-10-10-10-10-10---------------------------------|
-------------------------------------------------7-7-7-7-7-7-7-7-7-7-7-7-7-7-7-7-|
---------------------------------------------------------------------------------|
---------------------------------------------------------------------------------|
---------------------------------------------------------------------------------|

(A) (E) (A)
-0---0---0--|
-2---0---2--|
-2---1---2--|  X2
-2---2---2--|
-0---2---0--|
-0---0---0--|

PALM MUTE
-0-0-0-0-0-0-0-0--0-0-0-0-0-0-0-0    -0-0-0-0--|
-2-2-2-2-2-2-2-2--0-0-0-0-0-0-0-0    -2-2-2-2--|
-2-2-2-2-2-2-2-2--1-1-1-1-1-1-1-1 X3 -2-2-2-2--| X4
-2-2-2-2-2-2-2-2--2-2-2-2-2-2-2-2    -2-2-2-2--|
-0-0-0-0-0-0-0-0--2-2-2-2-0-0-0-0    -0-0-0-0--|
-0-0-0-0-0-0-0-0--0-0-0-0-0-0-0-0    -0-0-0-0--|


----------|
----------|
-4-4-4-4--|
-4-4-4-4--| X8
-2-2-2-2--|
----------|

----------|
----------|
-4-4-4-4--|
-4-4-4-4--| X8
-2-2-2-2--|
----------|
(A)(E)(A)
-0--0--0--|
-2--0--2--|
-2--1--2--| X3
-2--2--2--|
-0--2--0--|
-0--0--0--|

PALM MUTE                           (NON PALM MUTE)
-0-0-0-0-0-0-0-0--0-0-0-0-0-0-0-0    -0-0-0-0--|
-2-2-2-2-2-2-2-2--0-0-0-0-0-0-0-0    -2-2-2-2--|
-2-2-2-2-2-2-2-2--1-1-1-1-1-1-1-1 X4 -2-2-2-2--| X4
-2-2-2-2-2-2-2-2--2-2-2-2-2-2-2-2    -2-2-2-2--|
-0-0-0-0-0-0-0-0--2-2-2-2-2-2-2-2    -0-0-0-0--|
-0-0-0-0-0-0-0-0--0-0-0-0-0-0-0-0    -0-0-0-0--|

----------|
----------|
-4-4-4-4--|
-4-4-4-4--| X8
-2-2-2-2--|
----------|

----------|
----------|
-4-4-4-4--|
-4-4-4-4--| X8
-2-2-2-2--|
----------|

------------------------------------|
-7-0-7-0-7-0-7-0--12--12--12--12----|
--------------------11--11--11--11--|
------------------------------------| X6
------------------------------------|
------------------------------------|

(A)              (PALM MUTE)
-0-0-0-0-        0-------|
-2-2-2-2-        2-------|
-2-2-2-2- X8     2-------|
-2-2-2-2-        2--4--6-|
-0-0-0-0-        0--4--6-|
-0-0-0-0-        0--2--6-|

-14------------------|
-------10---------10-|
-------------7-------|
---------------------| x3
---------------------|
---------------------|

-14-14-14-14-14-14-14-14-----------------------------------------------------------------|
-------------------------10-10-10-10-10-10-10-10-----------------10-10-10-10-10-10-10-10-|
-------------------------------------------------7-7-7-7-7-7-7-7-------------------------|
-----------------------------------------------------------------------------------------|
-----------------------------------------------------------------------------------------|
-----------------------------------------------------------------------------------------|

-14-14-14-14-14-14-14-14---------------------------------------------------------|
-------------------------10-10-10-10-10-10-10-10---------------------------------|
-------------------------------------------------7-7-7-7-7-7-7-7-7-7-7-7-7-7-7-7-|
---------------------------------------------------------------------------------|
---------------------------------------------------------------------------------|
---------------------------------------------------------------------------------|

            
            
Suggest correction
Creating personal tab
Creating personal tab
You can edit any tab online and save it as your Personal.

You can edit, replace or remove any tab part or add personal notes – all changes will be seen only by you.

Personal tabs can be accessed anytime from any device, even offline.
Learn more »
comments
print report bad tab
3 comments total.
0 reply
IPlacebo 92 Dec 18, 2006 03:42 AM

Great tab...Thanks man.
5 stars

0 reply
Leumas99 40 Jan 11, 2008 02:18 PM

I like the intro you've tabbed

0 reply
mattysen 112 May 16, 2008 04:36 PM

you dont play A with all the strings open thats why ur better of with the barre A chord witch is
e-5-
b-5-
g-6-
d-7-
a-7-
e-5-

guest
You may want to rate the tab now too:
select rating
Wanna post a correction for this tab? Suggest correction