Oops, an error
Loading. Please wait.

Pelican bass

2,943 views 9 this week
no commentswrite comment
1 2 3 4 5
2 more votes to show rating
add to favorites
×
Save as Personal and add changes to this tab that will be seen only by you. Learn more ›
×
You can save this tab as Personal to edit and correct it or add notes. All changes will be seen only by you. Learn more »
launch autoscroll
font size
0
reset
guitar tuner
edit
Autoscroll
slow
fast
+/-
esc
set tempo
stop
Author
The Maccabees
Pelican
Given to the Wild

Intro and First Verse
G|-----------------|
D|-7-7-7-7-7-7-7-7-|
A|-----------------|
E|-----------------| repeat until chorus

1st Chorus(break for bass)

E|5~

2nd Verse

G|-------12-14-------12-14-------12-14--------|
D|---5-7--------5-7---------5-7---------------|
A|------------------------------------5-5-----|
E|-5-----------5-----------5------------------| x4

2nd Chorus

G|---------------------------------|
D|---------------------------------|
A|---------------------------------|
E|-5-55553-5-55553-5-55553-5-55553-|

G|---------------------------------|
D|---------------------------------|
A|---------------------------------|
E|-3-33331-3-33331-3-33331-3-33331-|

G|---------------------------------|
D|-----------------------5-------5-|
A|-3-3333--3-3333--3-3333--3-3333--|
E|-------3-------3-----------------|

G|----------------------------------------|
D|----------------5-5---------------5-5---|
A|-7-77775-7-7777----77775-7-77777--------|
E|----------------------------------------|

3rd Verse
Repeat intro, then it's same riff as the 2nd verse.

3rd Chorus
The same riff as 2nd chorus, repeat until the end.

Finish on:

D|5~



Tabbed by joshdj

            
            
Suggest correction
Creating personal tab
Creating personal tab
You can edit any tab online and save it as your Personal.

You can edit, replace or remove any tab part or add personal notes – all changes will be seen only by you.

Personal tabs can be accessed anytime from any device, even offline.
Learn more »
Give kudos to tab author, rate the tab!
1 2 3 4 5
comments
print report bad tab
guest
You may want to rate the tab now too:
select rating
Wanna post a correction for this tab? Suggest correction