Oops, an error
Loading. Please wait.

Wall Of Arms bass

2,991 views 6 this week
no commentswrite comment
1 2 3 4 5
x 4
add to favorites
×
Save as Personal and add changes to this tab that will be seen only by you. Learn more ›
×
You can save this tab as Personal to edit and correct it or add notes. All changes will be seen only by you. Learn more »
launch autoscroll
font size
0
reset
guitar tuner
edit
Autoscroll
slow
fast
+/-
esc
set tempo
stop
Author
-----------------------------------------------------------------------------
			     Wall of Arms - The Maccabees
-----------------------------------------------------------------------------

Tabbed By : Callum Urquhart

Tuning: Standard

Love this band, love this song.
Ive tried to make it as easy to follow as possible...
It isnt as complicated as it looks! I think its pretty accurate...
We need more Maccabees tabs!

Intro

G|-------------------------|
D|------------7-9-9\\\-----|
A|-0--3--0-----------------| X 6
E|-------------------------|

Verses

G|-----14-----------14-----------14-----------16----14----|
D|--------12h14--------12h14--------12h14-----------------|
A|--12-----------12-----------12-----------14----12-------| X 1
E|--------------------------------------------------------|

G|-----12-----------12----------12----------12------------| -\
D|--------10h12--------10h12-------10h12-------10h12------|  |
A|--10-----------10----------10----------10---------------|  |
E|--------------------------------------------------------|  |
                                                             |
G|-----16-----------16----------14----------14------------|  |
D|--------14h16--------14h16-------12h14-------12h14------|  |
A|--14-----------14----------12----------12---------------|  |
E|--------------------------------------------------------|  |
                                                             |- X 2
G|-----12-----------12----------12----------12------------|  |
D|--------10h12--------10h12-------10h12-------10h12------|  |
A|--10-----------10----------10----------10---------------|  |
E|--------------------------------------------------------|  |
                                                             |
G|-----14-----------14-----------14-----------16----14----|  |
D|--------12h14--------12h14--------12h14-----------------|  |
A|--12-----------12-----------12-----------14----12-------|  |
E|--------------------------------------------------------| -/

G|-----12-----------12----------12----------12------------|
D|--------10h12--------10h12-------10h12-------10h12------|
A|--10-----------10----------10----------10---------------|
E|--------------------------------------------------------| 

G|--------------------------------------------------------|
D|--------------------------------------------------------|
A|--14>>>--------------------12>>>------------------------|
E|--------------------------------------------------------|

G|-----12-----------12----------12----------12------------| 
D|--------10h12--------10h12-------10h12-------10h12------| 
A|--10-----------10----------10----------10---------------| 
E|--------------------------------------------------------| 
                                                             
G|-----14-----------14-----------14-----------16----14----|  
D|--------12h14--------12h14--------12h14-----------------| 
A|--12-----------12-----------12-----------14----12-------| 
E|--------------------------------------------------------| 

G|-----12-----------12----------12----------12------------|
D|--------10h12--------10h12-------10h12-------10h12------|
A|--10-----------10----------10----------10---------------|
E|--------------------------------------------------------| 

G|--------------------------------------------------------|
D|--------------------------------------------------------|
A|--14>>>--------------------12>>>------------------------|
E|--------------------------------------------------------|

G|--------------------------------------------------------|
D|--------------------------------------------------------|
A|--10>>>-------------------------------------------------|
E|--------------------------------------------------------|

'And through these eyes, theres no god above me...'

'No devil below me...'

G|--------------------------------------------------------|
D|--------------------------------------------------------|
A|------------------------------10>>>---------------------|
E|--------------------------------------------------------|

'Its only me that can forgive me...'

G|--------------------------------------------16----14----|
D|--------------------------------------------------------|
A|-----------------------------------------14----12-------|
E|--------------------------------------------------------|

G|-----12-----------12----------12----------12------------| 
D|--------10h12--------10h12-------10h12-------10h12------| 
A|--10-----------10----------10----------10---------------| 
E|--------------------------------------------------------| 
                                                             
G|-----14-----------14-----------14-----------16----14----|  
D|--------12h14--------12h14--------12h14-----------------| 
A|--12-----------12-----------12-----------14----12-------| 
E|--------------------------------------------------------| 

G|-----12-----------12----------12----------12------------|
D|--------10h12--------10h12-------10h12-------10h12------|
A|--10-----------10----------10----------10---------------|
E|--------------------------------------------------------| 

G|-----14-----------14-----------14-----------16----14----|  
D|--------12h14--------12h14--------12h14-----------------| 
A|--12-----------12-----------12-----------14----12-------| 
E|--------------------------------------------------------| 

'...those who put up with me'

G|--------------------------------------------------------|
D|--------------------------------------------------------|
A|--------------------------------------------------------|
E|--10-10-10-10-10 ect------------------------------------|

'Shes my one and only...'

G|--16-14-------------------------------------------------|
D|--------17-14-------------------------------------------|
A|--------------17-15-14-12-------------------------------| X 8
E|--------------------------------------------------------|

Outro

G|-------------------------|
D|------------7-9-9\\\-----|
A|-0--3--0-----------------| X 8
E|-------------------------|

| /  slide up
| \  slide down
| h  hammer-on
| p  pull-off
| ~  vibrato
| +  harmonic
| x  Mute note
=============================================================================

            
            
Suggest correction
Creating personal tab
Creating personal tab
You can edit any tab online and save it as your Personal.

You can edit, replace or remove any tab part or add personal notes – all changes will be seen only by you.

Personal tabs can be accessed anytime from any device, even offline.
Learn more »
comments
print report bad tab
guest
You may want to rate the tab now too:
select rating
Wanna post a correction for this tab? Suggest correction