Oops, an error
Loading. Please wait.

Pay The Piper tab

version 1
version 1

Whole song

420 views 1 this week
no commentswrite comment
1 2 3 4 5
2 more votes to show rating
add to favorites
×
Save as Personal and add changes to this tab that will be seen only by you. Learn more ›
×
You can save this tab as Personal to edit and correct it or add notes. All changes will be seen only by you. Learn more »
launch autoscroll
font size
0
reset
how to read this tab
guitar tuner
edit
Autoscroll
slow
fast
+/-
esc
set tempo
stop
Author
Difficulty
The Mad Trist - Pay the Piper (http://www.themadtrist.com/)
album - Pay The Piper
Tabbed by Joran van der Sluis.

This is my first tab,
I just wrote the whole song down.
The song is not that hard. Basically, it's just the intro the verse and the bridge/solo. Enjoy!



Standard tuning (EADGBe)

intro:
E||---------------------------------------|
B||---------------------------------------|
G||---------------------------------------|
D||---------------------------------------|   2×
A||-3-3---3---3-3---3---6-6---6---4-4---4-|
E||---------------------------------------|
                                        PAY!

verse:
first 3 times it's played instrumental, after that, 2 lines of vocals are sung over the riff.
E||---------------------------------------|
B||---------------------------------------|
G||---------------------------------------|   7×
D||---------------------------------------|
A||-3-3---3---3-3---3---6-6---6---4-4---4-|
E||---------------------------------------|
Here's a new day glaring through the window
Shape up and cock it like a copper now (PAY!)

As I stroll down, go and pop your neck bone
Catch up, get in line, take pace now (PAY!)

Make way, see how they sway
Till they're nauseous, mission is accomplished (PAY!)

He's a rooster, call him leader of the flock
Make room for the man on the sidewalk

chorus:

guitar 1:
E||-----------------------------------------------------------------|
B||-----------------------------------------------------------------|
G||-5-5-5-5-5-5-5-5-8-8-8-8---------------------------------4-4-4-4-|
D||-5-5-5-5-5-5-5-5-8-8-8-8-8-8-8-8-6-6-6-6-6-6-6-6-3-3-3-3-4-4-4-4-| 2×
A||-3-3-3-3-3-3-3-3-6-6-6-6-8-8-8-8-6-6-6-6-6-6-6-6-3-3-3-3-2-2-2-2-|
E||-------------------------6-6-6-6-4-4-4-4-4-4-4-4-1-1-1-1---------|

guitar2:
E||-----------------------------------------------|
B||-/8---------/8---------/8---------------8------|
G||----8----8-----8----8-----8----10--8-10---10-8-|
D||------10---------10---------10-----------------| 4×
A||-----------------------------------------------|
E||-----------------------------------------------|

Follow me down
We're leaving town
My feathers shine for you to adore
I wear 'em pied
I'm black and white
I'm here to take your babies away

Come listen come
It's what you want
My feathers shine for you to adore
I wear 'em pied
I'm black and white
I'm here to take your babies away

(intro:)
E||---------------------------------------|
B||---------------------------------------|
G||---------------------------------------|
D||---------------------------------------|
A||-3-3---3---3-3---3---6-6---6---4-4---4-|
E||---------------------------------------|
                                        PAY!


verse (2):
E||---------------------------------------|
B||---------------------------------------|
G||---------------------------------------|   4×
D||---------------------------------------|
A||-3-3---3---3-3---3---6-6---6---4-4---4-|
E||---------------------------------------|


It's a clear case, pay the piper
This dance is life wine spiked up (PAY!)

with brandy, red candy
Catch up, get in line, take pace now (PAY!)

Make way, see how they sway
Till they're nauseous, mission is accomplished (PAY!)

He's a rooster, call him leader of the flock
Make room for the man on the sidewalk


chorus:

guitar 1:
E||-----------------------------------------------------------------|
B||-----------------------------------------------------------------|
G||-5-5-5-5-5-5-5-5-8-8-8-8---------------------------------4-4-4-4-|
D||-5-5-5-5-5-5-5-5-8-8-8-8-8-8-8-8-6-6-6-6-6-6-6-6-3-3-3-3-4-4-4-4-| 2×
A||-3-3-3-3-3-3-3-3-6-6-6-6-8-8-8-8-6-6-6-6-6-6-6-6-3-3-3-3-2-2-2-2-|
E||-------------------------6-6-6-6-4-4-4-4-4-4-4-4-1-1-1-1---------|

guitar2:
E||-----------------------------------------------|
B||-/8---------/8---------/8---------------8------|
G||----8----8-----8----8-----8----10--8-10---10-8-|
D||------10---------10---------10-----------------| 4×
A||-----------------------------------------------|
E||-----------------------------------------------|

Follow me down
We're leaving town
My feathers shine for you to adore
I wear 'em pied
I'm black and white
I'm here to take your babies away

Come listen come
It's what you want
My feathers shine for you to adore
I wear 'em pied
I'm black and white
I'm here to take your babies away


bridge/solo:

guitar 1:
E||-----------------------------------------------------------------|
B||-----------------------------------------------------------------|
G||-5-5-5-5-5-5-5-5-8-8-8-8---------------------------------4-4-4-4-|
D||-5-5-5-5-5-5-5-5-8-8-8-8-8-8-8-8-6-6-6-6-6-6-6-6-3-3-3-3-4-4-4-4-| 2×
A||-3-3-3-3-3-3-3-3-6-6-6-6-8-8-8-8-6-6-6-6-6-6-6-6-3-3-3-3-2-2-2-2-|
E||-------------------------6-6-6-6-4-4-4-4-4-4-4-4-1-1-1-1---------|

guitar 2:
E||-------------------------------------------------------------------------|
B||-------------------------------------------------------------------------|
G||-5-5-5-5-5-5-5-5-5-5-5-5-5-5-5-5-5-5-5-5-5-5-5-5-5-5-5-5-5-5-5-5-5-5-5-5-|
D||-------------------------------------------------------------------------|
A||-------------------------------------------------------------------------|
E||-------------------------------------------------------------------------|

E||-------------------------------------------------------------------------|
B||-------------------------------------------------------------------------|
G||-7-7-7-7-7-7-7-7-7-7-7-7-5-5-5-5-5-5-5-5-5-5-5-5-5-5-5-5-5-5-5-5-5-5-5-5-|
D||-------------------------------------------------------------------------|
A||-------------------------------------------------------------------------|
E||-------------------------------------------------------------------------|

E||-------------------------------------------------------------------------|
B||-------------------------------------------------------------------------|
G||-5-5-5-5-5-5-5-5-5-5-5-5-7-7-7-7-7-7-7-7-7-7-7-7-9-9-9-9-9-9-9-9-9-9-9-9-|
D||-------------------------------------------------------------------------|
A||-------------------------------------------------------------------------|
E||-------------------------------------------------------------------------|

E||-------------------------------------------------------------------------|
B||-------------------------------------------------------------------------|
G||-9-9-9-9-9-9-9-9-9-9-9-9-8-8-8-8-8-8-8-8-8-8-8-8-7-7-7-7-7-7-7-7-7-7-7-7-|
D||-------------------------------------------------------------------------|
A||-------------------------------------------------------------------------|
E||-------------------------------------------------------------------------|

E||-------------------------------------------------------------------------|
B||-------------------------------------------------------------------------|
G||-5-5-5-5-5-5-5-5-5-5-5-5-5-5-5-5-5-5-5-5-5-5-5-5-5-5-5-5-5-5-5-5-5-5-5-5-|
D||-------------------------------------------------------------------------|
A||-------------------------------------------------------------------------|
E||-------------------------------------------------------------------------|

E||-------------------------|
B||-------------------------|
G||-7-7-7-7-7-7-7-7-7-7-7-7-|
D||-------------------------|
A||-------------------------|
E||-------------------------|

outro:
E||---------------------------------------|
B||---------------------------------------|
G||---------------------------------------|
D||---------------------------------------|
A||-3-3---3---3-3---3---6-6---6---4-4---4-|
E||---------------------------------------|
                                       PAY!

E||---------------------------------------|
B||---------------------------------------|
G||---------------------------------------|
D||---------------------------------------|
A||-3-3---3---3-3---3---6-6---6---4-4-----|
E||---------------------------------------|
                                       PAY!


Thank you for using.
please vote and stuff.

            
            
Suggest correction
Creating personal tab
Creating personal tab
You can edit any tab online and save it as your Personal.

You can edit, replace or remove any tab part or add personal notes – all changes will be seen only by you.

Personal tabs can be accessed anytime from any device, even offline.
Learn more »
Give kudos to tab author, rate the tab!
1 2 3 4 5
comments
print report bad tab
guest
You may want to rate the tab now too:
select rating
Wanna post a correction for this tab? Suggest correction