Oops, an error
Loading. Please wait.

Vanilla bass

124 views 1 this week
no commentswrite comment
1 2 3 4 5
3 more votes to show rating
add to favorites
×
Save as Personal and add changes to this tab that will be seen only by you. Learn more ›
×
You can save this tab as Personal to edit and correct it or add notes. All changes will be seen only by you. Learn more »
launch autoscroll
font size
0
reset
guitar tuner
edit
Autoscroll
slow
fast
+/-
esc
set tempo
stop
About this tab version
Triplets for bridge followed by eighth notes for bridge and no pauses between its triplet and eighth notes. Was this info helpful? Yes No
[Intro] twice
G|---------------------------------------------------------------------------|
D|---------------------------------------------------------------------------|
A|-6-6-6-6---6---6-6---6-6---6-6-6-6---6-6-6-6---6---6-6---6-6---6-6-6-6-----|
E|---------------------------------------------------------------------------|

G|---------------------------------------------------------------------------|
D|---------------------------------------------------------------------------|
A|---------------------------------------------------------------------------|
E|-4-4-4-4---4---4-4---4-4---4-4-4-4---4-4-4-4---4---4-4---4-4---4-4-4-4-----|

[Verse] "You said I'm plain and fickle... My Love" that is a ten not a one and zero. 
G|------------------------------------------------------------------------------------|
D|------------------------------------------------------------------------------------|
A|-4-4-4-4---4-4-4---4-4-4-4---4-4-4/10-----------------------------------------------|   2x
E|----------------------------------------4-4-4-4---4-4-4---4-4-4-4---4-4-4---4---4---|

[Pre-Chorus] "I know i'm not made.... but there's nobody like me"
G|----------------------------------------------------------------------------|
D|----------------------------------------------------------------------------|
A|-----------------6-6-6-6-6-6-6-6--------------------------------------------|
E|-3-3-3-3-4-4-4-4-----------------3-3-3-3-4-4-4-4-6-6-6-6-6-6-6-6------------|


[Chorus part 1] "You're boring face it... hate about our youth"
G|----------------------------------------------------------------------------|
D|-------------------------------------------------5-5-5-5-6-6-6-6------------|
A|-6-6-6-6-5-5-5-5-----------------6-6-6-6-5-5-5-5----------------------------|
E|-----------------3-3-3-3-4-4-4-4--------------------------------------------|

[Chorus part 2] "I'm lost and hysteric... don't you ever call me vanilla"
G|---------------------------------------------------------------------------|
D|---------------------------------------------------------------------------|
A|-------------------------------------6-6-6-6-6-6-6-6-6-6-6-6-6-6-6-6-------|
E|-3-3-3-3-3-3-3-3---4-4-4-4-4-4-4-4-----------------------------------------|

G|--------------------------------------------------------------------------|
D|--------------------------------------------------------------------------|
A|--------------------------------------------------------------------------|
E|-3-3-3-3-3-3-3-3---4-4-4-4-4-4-4-4---6-6-6-6-6-6-6-6-6-6-6-6-6-6-6-6------|

[Verse] "I'm a mixture of water and bone... say I am" again that is a ten not a one and zero. 
G|------------------------------------------------------------------------------------|
D|------------------------------------------------------------------------------------|
A|-4-4-4-4---4-4-4---4-4-4-4---4-4-4/10-----------------------------------------------|   2x
E|----------------------------------------4-4-4-4---4-4-4---4-4-4-4---4-4-4---4---4---|

No bass for the pre-chorus after verse 2

[Chorus part 1] "You're boring face it... hate about our youth"
G|---------------------------------------------------------------------------|
D|-------------------------------------------------5-5-5-5-6-6-6-6-----------|
A|-6-6-6-6-5-5-5-5-----------------6-6-6-6-5-5-5-5---------------------------|
E|-----------------3-3-3-3-4-4-4-4-------------------------------------------|

[Chorus part 2] "I'm lost and hysteric... don't you ever call me vanilla"
G|---------------------------------------------------------------------------|
D|---------------------------------------------------------------------------|
A|-------------------------------------6-6-6-6-6-6-6-6-6-6-6-6-6-6-6-6-------|
E|-3-3-3-3-3-3-3-3---4-4-4-4-4-4-4-4-----------------------------------------|

G|--------------------------------------------------------------------------|
D|--------------------------------------------------------------------------|
A|--------------------------------------------------------------------------|
E|-3-3-3-3-3-3-3-3---4-4-4-4-4-4-4-4---6-6-6-6-6-6-6-6-6-6-6-6-6-6-6-6------|

[Bridge part 1] "So whats the matter pretty pretty... Your flavor of choice"
G|---------------------------------------------------------------------------------|
D|---------------------------------------------------------------------------------|
A|-----------------3-3-3-3-3-3-3-3-------------------------------------------------|
E|-4-4-4-4-4-4-4-4----------------6-6-6-6-6-6-6-6-4-4-4-4-4-4-4-4-4-4-4-4-4-4-4-4--|

[Bridge part 2] "I know that this may a whisper" NOTE: Pause between the Ab and C 
G|---------------------------------|
D|---------------------------------|
A|----------------3-3-3-3-3-3-3-3--|
E|4-4-4-4-4-4-4-4------------------|

[Bridge part 3] "But its just our voice... oh it says"
G|----------------------------------------------------------------------------------------------------|
D|----------------------------------------------------------------------------------------------------|
A|----------------------------------------------------------------------------------------------------|
E|-333-333-666-666-66-66-66---333-444-666-666-66-66-66------------------------------------------------|

[Chorus part 1] "You're boring face it... hate about our youth"

G|---------------------------------------------------------------------------|
D|-------------------------------------------------5-5-5-5-6-6-6-6-----------|
A|-6-6-6-6-5-5-5-5-----------------6-6-6-6-5-5-5-5---------------------------|
E|-----------------3-3-3-3-4-4-4-4-------------------------------------------|

[Chorus part 2] "I'm lost and hysteric... don't you ever call me vanilla"
G|---------------------------------------------------------------------------|
D|---------------------------------------------------------------------------|
A|-------------------------------------6-6-6-6-6-6-6-6-6-6-6-6-6-6-6-6-------|
E|-3-3-3-3-3-3-3-3---4-4-4-4-4-4-4-4-----------------------------------------|

G|--------------------------------------------------------------------------|
D|--------------------------------------------------------------------------|
A|--------------------------------------------------------------------------|
E|-3-3-3-3-3-3-3-3---4-4-4-4-4-4-4-4---6-6-6-6-6-6-6-6-6-6-6-6-6-6-6-6------|

[Outro]
G|---------------------------------------------------------------------------|
D|---------------------------------------------------------------------------|
A|-6-6-6-6---6---6-6---6-6---6-6-6-6---6-6-6-6---6---6-6---6-6---6-6-6-6-----|
E|---------------------------------------------------------------------------|

G|---------------------------------------------------------------------------|
D|---------------------------------------------------------------------------|
A|---------------------------------------------------------------------------|
E|-4-4-4-4---4---4-4---4-4---4-4-4-4---4-4-4-4---4---4-4---4-4---4-4-4-4-----|

G|---------------------------------------------------------------------------|
D|---------------------------------------------------------------------------|
A|-6-6-6-6---6---6-6---6-6---6-6-6-6---6-6-6-6---6---6-6---6-6---6-6-6-6-----|
E|---------------------------------------------------------------------------|

G|---------------------------------------------------------------------------|
D|---------------------------------------------------------------------------|
A|---------------------------------------------------------------------------|
E|-4-4-4-4---4---4-4---4-4---4-4-4-4---4-4-4-4---4---4-4---4-4---4-4---------|


************************************

| /   Slide up


************************************

            
            
Suggest correction
Creating personal tab
Creating personal tab
You can edit any tab online and save it as your Personal.

You can edit, replace or remove any tab part or add personal notes – all changes will be seen only by you.

Personal tabs can be accessed anytime from any device, even offline.
Learn more »
Give kudos to tab author, rate the tab!
1 2 3 4 5
comments
print report bad tab
guest
You may want to rate the tab now too:
select rating
Wanna post a correction for this tab? Suggest correction