Oops, an error
Loading. Please wait.

Twelve - Thirty bass

88 views 1 this week
no commentswrite comment
1 2 3 4 5
2 more votes to show rating
add to favorites
×
Save as Personal and add changes to this tab that will be seen only by you. Learn more ›
×
You can save this tab as Personal to edit and correct it or add notes. All changes will be seen only by you. Learn more »
launch autoscroll
font size
0
reset
guitar tuner
edit
Autoscroll
slow
fast
+/-
esc
set tempo
stop
Author
Difficulty
Tabbed by: 6METAL6BASSIST6
E-mail: petergriffin@gmail.com

Tuning: About 1/4 step down.

G|----------------------------------------------------------------|
D|8---8---8---8---6---6---6---6---------------------------5-------|
A|--------------------------------6---6---6---6---6---8-------6---|
E|----------------------------------------------------------------|

G|--------------------------------------------------------5-------|
D|6---6---6---6---6---6---6-------6---6---6-------6---8-------6---|
A|----------------------------6---------------6-------------------|
E|----------------------------------------------------------------|

G|----------------------------------------------------------------|
D|8---8---8---8---6---6---6---6---------------------------8-------|
A|--------------------------------6---6---6---6---6---6-------6---|
E|----------------------------------------------------------------|

G|--------------------------------------------------------5-------|
D|6---6---6---6---6---6---6-------6---6---6-------6---8-------6---|
A|----------------------------6---------------6-------------------|
E|----------------------------------------------------------------|

0:18

G|----------------------------------------------------------------|
D|8---8---8---8---6---6---6---6---------------------------8-------|
A|--------------------------------6---6---6---6---6---6-------6---|
E|----------------------------------------------------------------|

G|----------------------------------------------------------------|
D|6---6---6---6---6---6---6-----------------------6---6---6---6---|
A|----------------------------6---5---5---5---5-------------------|
E|----------------------------------------------------------------|

G|----------------------------------------------------------------|
D|8---8---8---8---8---8-------8---7---7---7---7---7---7-------7---|
A|------------------------8-------------------------------7-------|
E|----------------------------------------------------------------|

G|----------------------------------------------------------------|
D|7---6---6---6---6---6---6---6---6---6---6---6---6---6---6---6---|
A|----------------------------------------------------------------|
E|----------------------------------------------------------------|

0:34

G|----------------------------------------------------------------|
D|----------------------------------------------------------------|
A|4-------4-----4---------2-------4-------4-----4-----------------|
E|----------------4-------------------------------4---------------|

G|----------------------------------------------------------------|
D|6---6---6-----6---------4---5---6-------6-----6---------4---6---|
A|----------------6---6---------------------------6---6-----------|
E|----------------------------------------------------------------|

G|----------------------------------------------------------------|
D|4-------4-------4-------4---6---8-------8-----8---------6---8---|
A|--------------4-----4---------------------------8---------------|
E|----------------------------------------------------------------|

G|----------------------------------------------------------------|
D|6-------6-----6---------4---5---6-------6-----6---------4---6---|
A|----------------6---6---------------------------6---------------|
E|----------------------------------------------------------------|

0:51

G|----------------------------------------------------------------|
D|----------------------------------------------------------------|
A|4-------4---------------2-------4-------4-----------------------|
E|----------------4-------------------------------4-------6-------|

G|----------------------------------------------------------------|
D|6-------6---------------4---5---6-------6-----6---------4---6---|
A|----------------6---6---------------------------6---6-----------|
E|----------------------------------------------------------------|

G|----------------------------------------------------------------|
D|4---4---4---------------2---3---4-------4-------2---4-----------|
A|----------------4-----------------------------4---------2---3---|
E|----------------------------------------------------------------|

G|----------------------------------------------------------------|
D|--------------------------------------------------------6---7---|
A|4-------4-----4---------2---3---4-------4-------4-4-------------|
E|----------------4---4-------------------------------------------|

1:08

G|----------------------------------------------------------------|
D|8---8---8---8---6---6---6---6---------------------------5-------|
A|--------------------------------6---6---6---6---6---8-------6---|
E|----------------------------------------------------------------|

G|--------------------------------------------------------5-------|
D|6---6---6---6---6---6---6-------6---6---6-------6---8-------6---|
A|----------------------------6---------------6-------------------|
E|----------------------------------------------------------------|

G|----------------------------------------------------------------|
D|8---8---8---8---6---6---6-------------------------------8-------|
A|--------------------------------6---6---6---6---6---6-------6---|
E|----------------------------------------------------------------|

G|--------------------------------------------------------5-------|
D|6---6---6---6---6---6---6-------6---6---6-------6---8-------6---|
A|----------------------------6---------------6-------------------|
E|----------------------------------------------------------------|

1:25

G|------------------------------------------------8---------------|
D|8---8---8---8---6---6---6---6---------------------------8-------|
A|--------------------------------6---6---6---6-------6-------6---|
E|----------------------------------------------------------------|

G|----------------------------------------------------------------|
D|6---6---6---6---6---6---6-----------------------6---6---6---6---|
A|----------------------------6---5---5---5---5-------------------|
E|----------------------------------------------------------------|

G|----------------------------------------------------------------|
D|8---8---8---8---8---8-------8---7---7---7---7---7---7-------7---|
A|------------------------8-------------------------------7-------|
E|----------------------------------------------------------------|

G|----------------------------------------------------------------|
D|6---6---6---6---6---6---6---6-/-6---6---6---6---6---4-----------|
A|--------------------------------------------------------6---5---|
E|----------------------------------------------------------------|

1:42

G|----------------------------------------------------------------|
D|----------------------------------------------------------------|
A|4-------4---------------2-------4-------4-----------------------|
E|----------------4-------------------------------4---4---6-------|

G|----------------------------------------------------------------|
D|6-------6---------------4---5---6-------6---------------4---6---|
A|----------------6---6---------------------------6---------------|
E|----------------------------------------------------------------|

G|----------------------------------------------------------------|
D|4-------4-------4-------4---6---8-------8-----8-----6---8-------|
A|--------------4-----4---------------------------8---------------|
E|----------------------------------------------------------------|

G|----------------------------------------------------------------|
D|6-------6---------------4---5---6-------6---------------4---6---|
A|----------------6-------------------------------6---------------|
E|----------------------------------------------------------------|

1:59

G|----------------------------------------------------------------|
D|----------------------------------------------------------------|
A|4-------4---------------2-------4-------4-----------------------|
E|----------------4-------------------------------4-------6-------|

G|----------------------------------------------------------------|
D|6---6---6-----6---------4---5---6-------6---------------4---6---|
A|----------------6---6---------------------------6---------------|
E|----------------------------------------------------------------|

G|----------------------------------------------------------------|
D|4-------4-----4---------2---3---4-------4-------2---4-----------|
A|----------------4---4-------------------------4---------2-------|
E|----------------------------------------------------------------|

G|----------------------------------------------------------------|
D|--------------------------------------------------------6---7---|
A|4-------4-----4---------2---3---4-------4-------4---4-----------|
E|----------------4---4-------------------------------------------|

2:16

G|----------------------------------------------------------------|
D|8---8---8---8---6---6---6---6-----------5-------8-------6---8---|
A|--------------------------------6---8-------6-------6-----------|
E|----------------------------------------------------------------|

G|--------------------------------------------5---8---6---5-------|
D|6---6---6---6---6---6---6-------6-----6---8-----------------6---|
A|----------------------------6-------6---------------------------|
E|----------------------------------------------------------------|

G|------------------------------------------------------------8---|
D|8-------8---8---6---6---6---6-------------------------8---------|
A|--------------------------------6---6---6---6---6---6-----------|
E|----------------------------------------------------------------|

G|----------------------------------------------------------------|
D|6---6---6---6---6---6---6---6---6-------6-----6-----6-----6-----|
A|------------------------------------6-------6-----6-----6-----6-|
E|----------------------------------------------------------------|

2:33

G|----------------------------------------------------------------|
D|8---8---8---8---6---6---6---6-------------------------8-----8---|
A|--------------------------------6---6---6---6---6---6-----------|
E|----------------------------------------------------------------|

G|----------------------------------------------------------------|
D|6---6---6---6---6---6---6---6-------------------6---6---6---6---|
A|--------------------------------5---5---5---5-------------------|
E|----------------------------------------------------------------|

G|----------------------------------------------------------------|
D|8---8---8---8---8---8-------8---7---7---7---7---7---7-------7---|
A|----------------------8-------------------------------7---------|
E|----------------------------------------------------------------|

G|----------------------------------------------------------------|
D|6---6---6---6---6---6---6---6---6-----4-----6-----4-----6-------|
A|------------------------------------6-----6-----6-----6-----6---|
E|----------------------------------------------------------------|

2:50

G|----------------------------------------------------------------|
D|----------------------------------------------------------------|
A|4-------4-----4---------2-------4-------4-------------------4---|
E|----------------4---4---------------------------4-------4-------|

G|----------------------------------------------------------------|
D|6-------6-----6---------4---5---6-------6-----4-----6-------6---|
A|----------------6---6-----------------------6-----6-----6-------|
E|----------------------------------------------------------------|

G|----------------------------------------------------------------|
D|4-------4-------4-------4---6---8-------8-------6---8-------8---|
A|--------------4-----4-------------------------8---------8-------|
E|----------------------------------------------------------------|

G|----------------------------------------------------------------|
D|6-------6-------6-------6-------6-------6-----6-----6-------6---|
A|----------------------------6---------------6-----6-----6-------|
E|----------------------------------------------------------------|

G|----------------------------------------------------------------|
D|----------------------------------------------------------------|
A|4-------4-----4---------2-------4-------4-------2---4-----------|
E|----------------4-----------------------------4---------4---6---|

G|----------------------------------------------------------------|
D|6-------6-----6---------4---5---6-------6-------4---6-------6---|
A|----------------6---6-------------------------6---------6-------|
E|----------------------------------------------------------------|

G|--------------------------------------------------------------------------------|
D|4-------4-------4-------4---6---8-------8-------4---6---8-----------------------| fades out here.
A|----------------------------------------------------------------4-------4-------|
E|--------------------------------------------------------------------------------|

            
            
Suggest correction
Creating personal tab
Creating personal tab
You can edit any tab online and save it as your Personal.

You can edit, replace or remove any tab part or add personal notes – all changes will be seen only by you.

Personal tabs can be accessed anytime from any device, even offline.
Learn more »
Give kudos to tab author, rate the tab!
1 2 3 4 5
comments
print report bad tab
guest
You may want to rate the tab now too:
select rating
Wanna post a correction for this tab? Suggest correction