Oops, an error
Loading. Please wait.

Aberinkula bass

version 1
version 1

Whole song

Interactive

772 views 1 this week
no commentswrite comment
1 2 3 4 5
2 more votes to show rating
add to favorites
×
Save as Personal and add changes to this tab that will be seen only by you. Learn more ›
×
You can save this tab as Personal to edit and correct it or add notes. All changes will be seen only by you. Learn more »
launch autoscroll
font size
0
reset
guitar tuner
edit
Autoscroll
slow
fast
+/-
esc
set tempo
stop
Author
Difficulty
Artist: The Mars Volta

Album: The Bedlam in Goliath



All tabs by Pedro Zappa
-----------------------------------------------------------------------------
-----------------------------------------------------------------------------


1. Aberinkula


Chorus 1

7/8                   9/8                     
G||------------------|-----------------------||  x4
D||------------------|-----------------------||
A||-5--4-------------|-----------------------||
E||--------6---5---4-|-3---------------------||
    i i  i i  i i  i   i i  i i  i i  i i  i

Verse 1

7/8                   4/4                 
G||------------------|--------------------||  x3
D||------------------|--------------------||
A||-5554-44----------|--------------------||
E||--------66-6555-44|-3333-3333-3333-3333||
    i i  i i  i i  i   i    i    i    i
7/8                   4/4
G||------------------|--------------------||  
D||------------------|-----------5555-53--||
A||-5554-44----------|------------------5-||
E||--------66-6555-44|-3333-3333----------||
    i    i    i    i     i    i    i    i
7/8                   4/4                 
G||------------------|--------------------||  x3
D||------------------|--------------------||
A||-5554-44----------|--------------------||
E||--------66-6555-44|-3333-3333-3333-3333||
    i i  i i  i i  i   i    i    i    i
7/8                   4/4
G||------------------|--------------------|
D||------------------|--------------------|
A||-5--4-------------|--------------------|
E||--------6---5---4-|-3------------------|
    i i  i i  i i  i   i    i    i    i

Chorus 2

7/8                   9/8                     
G||------------------|-----------------------||  x3
D||------------------|-----------------------||
A||-5--4-------------|-----------------------||
E||--------6---5---4-|-3---------------------||
    i i  i i  i i  i   i i  i i  i i  i i  i
7/8                   5/4                     
G||------------------|-------------------------||
D||------------------|-------------------------||
A||-5--4-------------|-------------------------||
E||--------6---5---4-|-3-----------------------||
    i i  i i  i i  i   i    i    i    i    i

Verse 2

7/8                   4/4                 
G||------------------|--------------------||  x3
D||------------------|--------------------||
A||-5554-44----------|--------------------||
E||--------66-6555-44|-3333-3333-3333-3333||
    i i  i i  i i  i   i    i    i    i
7/8                   4/4
G||------------------|--------------------||  
D||------------------|------555--350------||
A||-5554-44----------|--------------3-10--||
E||--------66-6555-44|-3333-------------3-||
    i i  i i  i i  i   i    i    i    i

7/8                   4/4                 
G||------------------|--------------------||  x3
D||------------------|--------------------||
A||-5554-44----------|--------------------||
E||--------66-6555-44|-3333-1333-3333-1333||
    i i  i i  i i  i   i    i    i    i
7/8                   4/4         
G||------------------|--------------------|
D||------------------|--------------------|
A||-5--4-------------|--------------------|
E||--------6---5---4-|-3------------------|
    i i  i i  i i  i   i    i    i    i

Chorus 3

7/8                   9/8                     
G||------------------|-----------------------||  x3
D||------------------|-----------------------||
A||-5--4-------------|-----------------------||
E||--------6---5---4-|-3---------------------||
    i i  i i  i i  i   i i  i i  i i  i i  i
7/8                   4/4                     
G||------------------|--------------------|| 
D||------------------|--------------------||
A||-5--4-------------|--------------------||
E||--------6---5---4-|-3------------------||
    i i  i i  i i  i   i    i    i    i    

Interlude

7/8                   4/4                     
G||------------------|--------------------||
D||------------------|--------------------||
A||-7--6-------------|------3-5--6-7------||
E||--------8---7---6-|-5------------------||
    i i  i i  i i  i   i    i    i    i   
7/8                   4/4                     
G||------------------|--------------------||
D||------------------|--------------------||
A||-7--6-------------|--------6--7-9--11--||
E||--------8---7---6-|-5-7--8-------------||
    i i  i i  i i  i   i    i    i    i   
7/8                   4/4                     
G||------------------|--------------------||
D||------------------|--------------------||
A||-7--6-------------|--------6--7-9------||
E||--------8---7---6-|-5-7--8-------------||
    i i  i i  i i  i   i    i    i    i   
7/8                   4/4     
G||------------------|--------------------||
D||------------------|--------------------||
A||-7--6-------------|--------------------||
E||--------8---7---6-|-5------------------||
    i i  i i  i i  i   i    i    i    i   
  
Verse 3

7/8                   4/4                 
G||------------------|--------------------||  x8
D||------------------|--------------------||
A||-5--4-------------|--------------------||
E||--------6---5---4-|-3------------------||
    i i  i i  i i  i   i    i    i    i

Chorus 4

7/8                   9/8                     
G||------------------|-----------------------||  x3
D||------------------|-----------------------||
A||-5--4-------------|-----------------------||
E||--------6---5---4-|-3---------------------||
    i i  i i  i i  i   i i  i i  i i  i i  i
7/8                   15/16                     
G||------------------|--------------------|| It sounds ridiculous but
D||------------------|--------------------|| this is the time signature
A||-5--4-------------|--------------------|| they played in this bar.
E||--------6---5---4-|-3------------------||
    i i  i i  i i  i   i.i. i.i. i.i. i. i   

Solo

4/4
G||--------------------||  x56
D||--------------------||
A||-0--0---0---0---00--||
E||--------------------||
    i    i    i    i   
G||--------------------||  x8
D||----------------0567||
A||-0--3---5---6-------||
E||--------------------||
    i    i    i    i  
G||--------------------||  x8
D||--------------------||
A||-0--0---0---0---00--||
E||--------------------||
    i    i    i    i   

Tab by Pedro Zappa
-----------------------------------------------------------------------------
-----------------------------------------------------------------------------

            
            
Suggest correction
Creating personal tab
Creating personal tab
You can edit any tab online and save it as your Personal.

You can edit, replace or remove any tab part or add personal notes – all changes will be seen only by you.

Personal tabs can be accessed anytime from any device, even offline.
Learn more »
Give kudos to tab author, rate the tab!
1 2 3 4 5
comments
print report bad tab
guest
You may want to rate the tab now too:
select rating
Wanna post a correction for this tab? Suggest correction