Oops, an error
Loading. Please wait.

Miranda That Ghost Just Isnt Holy Anymore tab

version 3
version 3

Whole song

Interactive

11,180 views 3 this week
3 commentsread comments
1 2 3 4 5
x 6
add to favorites
×
Save as Personal and add changes to this tab that will be seen only by you. Learn more ›
×
You can save this tab as Personal to edit and correct it or add notes. All changes will be seen only by you. Learn more »
launch autoscroll
font size
0
reset
how to read this tab
guitar tuner
edit
Autoscroll
slow
fast
+/-
esc
set tempo
stop
Author
-------------------------------------------------------------------------------
          Miranda That Ghost Just Isn't Holy Anymore - The Mars Volta
-------------------------------------------------------------------------------
Tabbed by: Mucki

Tuning: EADGBe

This is the acoustic verison of the song, which they were playing in the early 2008 europe shows.
Let notes ring where possible.

3/4 (whole song)

Intro
   1 + 2 + 3 +    1 + 2 + 3 +   1 + 2 + 3 +    1 + 2 + 3 +  
e|----5--------|-(5)------5---|----0--------|-(0)------0--|
B|---6---------|-(6)------6---|---6---------|-(6)------6--|
G|--7----------|-(7)------7---|--7----------|-(7)------7--|
D|-0-----------|-(0)------0---|-0-----------|-(0)------0--|
A|-------------|--------------|-------------|-------------|
E|-------------|--------------|-------------|-------------|


   1 + 2 + 3 +    1 + 2 + 3 +  1 + 2 + 3 +
e|----5--------|-(5)------5--|----0-----0--|
B|---6---------|-(6)------6--|---6------6--|
G|--7----------|-(7)------7--|--7-------7--|
D|-0-----------|-(0)------0--|-0--------0--|
A|-------------|-------------|-------------|
E|-------------|-------------|-------------|


Verse

Guitar 1 & 2:
   1 + 2 + 3 +   1 + 2 + 3 +   1 + 2 + 3 +   1 + 2 + 3 +   
e|-------0-----|-------0-----|-------0-----|-------0-----|
B|---------6---|---------6---|---------6---|---------6---|
G|-7---------7-|-----------7-|-----------7-|-------------|
D|-0-----------|-0---0-------|-0---0-------|-0---0-------|
A|-------------|-------------|-------------|-------------|
E|-------------|-------------|-------------|-----------5-|
 
 
Guitar 1 & 2:
   1 + 2 + 3 +   1 + 2 + 3 +   1 + 2 + 3 +   1 + 2 + 3 +
e|-------0-----|-------0-----|-------0-----|-------0---0-|
B|---------6---|---------6---|---------6---|-------6---6-|
G|-----------7-|-----------7-|-----------7-|-------7---7-|
D|-------------|-------------|-------------|-------------|
A|-------------|-------------|-------------|-------------|
E|-6---6-------|-6---6-------|-6---6-------|-6---6---5---|


Guitar 1:                                                    
   1 + 2 + 3 +   1 + 2 + 3 +   1 + 2 + 3 +   1 + 2 + 3 +     
e|-------3---3-|-------3---3-|-------3---3-|-------3---3-| 
B|-------3---3-|-------3---3-|-------3---3-|-------3---3-| 
G|-------------|-------------|-------------|-------------| 
D|-------------|-------------|-------------|-------------| 
A|-------------|-------------|-------------|-------------| 
E|-3---3---3---|-3---3---3---|-3---3---3---|-3---3---3---| 

                                                            
Guitar 2:
   1  + 2  + 3 +   1  + 2  + 3 +   1  + 2  + 3 +   1  + 2  + 3 +
e|------10-------|------10-------|------10-------|------10-------|
B|---------11----|---------11----|---------11----|---------11----|
G|-12---------12-|-12---------12-|-12---------12-|-12---------12-|
D|-12------------|-12------------|-12------------|-12------------|
A|-10------------|-10------------|-10------------|-10------------|
E|---------------|---------------|---------------|---------------|


Guitar 2 (Variation):
   1  + 2  + 3 +   1  + 2  + 3 +   1  +  2  +  3  +    1  +  2  +  3  +
e|------10-------|------10-------|-12-------12-------|-13-------13-------|
B|---------11----|---------11----|----11-------11----|----11-------11----|
G|-12---------12-|-12---------12-|-------12-------12-|-------12-------12-|
D|-12------------|-12------------|-------------------|-------------------|
A|-10------------|-10------------|-------------------|-------------------|
E|---------------|---------------|-------------------|-------------------|


Guitar 1 & 2:
   1 + 2 + 3 +   1 + 2 + 3 +   1 + 2 + 3 +   1 + 2 + 3 +   
e|-------0-----|-------0-----|-------0-----|-------0-----|
B|---------6---|---------6---|---------6---|---------6---|
G|-7---------7-|-----------7-|-----------7-|-----------7-|
D|-0-----------|-0---0-------|-0---0-------|-0---0-------|
A|-------------|-------------|-------------|-------------|
E|-------------|-------------|-------------|-------------|


Refrain
   1 + 2 + 3 +   1 + 2 + 3 +   1 + 2 + 3 +   1 + 2 + 3 +   1 + 2 + 3 +   1 + 2 + 3 +   
e|-------------|-------------|-------------|-------------|-------------|-------------|
B|-3-----3-----|-2-----2-----|-5-----5-----|-3-----3-----|-2-----2-----|-5-----5-----|
G|-0-------0---|-0-------0---|-0-------0---|-0-------0---|-0-------0---|-0-------0---|
D|-3---3-----3-|-2---2-----2-|-5---5-----5-|-3---3-----3-|-2---2-----2-|-5---5-----5-|
A|-------------|-------------|-------------|-------------|-------------|-------------|
E|-------------|-------------|-------------|-------------|-------------|-------------|


Post-Refrain
   1 + 2 + 3 +   1 + 2 + 3 +   1 + 2 + 3 +   1 + 2 + 3 +   
e|-------5-----|-------5-----|-------5-----|-------5-----|
B|---------6---|---------6---|---------6---|---------6---|
G|-7---------7-|-7---------7-|-7---------7-|-7---------7-|
D|-0-----------|-0-----------|-0-----------|-0-----------|
A|-------------|-------------|-------------|-------------|
E|-------------|-------------|-------------|-------------|


Outro
   1 + 2 + 3 +   1 + 2 + 3 +   1 + 2 + 3 +   1 + 2 + 3 +   
e|-------0-----|-------0-----|-------0-----|-------0-----|
B|---------6---|---------6---|---------6---|---------6---|
G|-7---------7-|-7---------7-|-7---------7-|-5---5-----7-|
D|-7---7-------|-7---7-------|-8---8-------|-------------|
A|-------------|-------------|-------------|-------------|
E|-------------|-------------|-------------|-------------|


   1 + 2 + 3 +   1 + 2 + 3 +   1 + 2 + 3 +   1 + 2 + 3 +
e|-------0-----|-------0-----|-------0-----|-------0-----|
B|---------6---|---------6---|---------6---|---------6---|
G|-7---------7-|-7---------7-|-7---------7-|-5---5-----7-|
D|-7---7-------|-7---7-------|-8---8-------|-------------|
A|-------------|-------------|-------------|-------------|
E|-------------|-------------|-------------|-------------|


   1 + 2 + 3 +   1 + 2 + 3 +   1 + 2 + 3 +   1 + 2 + 3 +   
e|-------0-----|-------0-----|-------0-----|-------0-----|
B|---------6---|---------6---|---------6---|---------6---|
G|-7---------7-|-7---------7-|-7---------7-|-5---5-----7-|
D|-7---7-------|-7---7-------|-8---8-------|-------------|
A|-------------|-------------|-------------|-------------|
E|-------------|-------------|-------------|-------------|


   1 + 2 + 3 +   1 + 2 + 3 +   1 + 2 + 3 +   1 + 2 + 3 +
e|-------0-----|-------0-----|-------5-----|-------5-----|
B|---------6---|---------6---|---------6---|---------6---|
G|-7---------7-|-7---------7-|-7---------7-|-5---5-----7-|
D|-7---7-------|-7---7-------|-8---8-------|-------------|
A|-------------|-------------|-------------|-------------|
E|-------------|-------------|-------------|-------------|


End
   1  + 2 + 3 +   1 + 2 + 3 +  
e|----5--------|-(5)----------|
B|---6---------|-(6)----------|
G|--7----------|-(7)----------|
D|-7-----------|-(7)----------|
A|-------------|--------------|
E|-------------|--------------|

Intro 
Verse (Instrumental)
Refrain (Instrumental)
Post-Refrain
Verse 2x
Refrain
Post-Refrain 2x
verse
Post-Refrain
Verse
Refrain
Post-Refrain
Verse (Instrumental)
Refrain 2x 
Outro (Instrumental)
End

|( ) Hold Note
| /  slide up
| \  slide down
| h  hammer-on
| p  pull-off
| ~  vibrato
| +  harmonic
| x  Mute note
===============================================================================

            
            
Suggest correction
Creating personal tab
Creating personal tab
You can edit any tab online and save it as your Personal.

You can edit, replace or remove any tab part or add personal notes – all changes will be seen only by you.

Personal tabs can be accessed anytime from any device, even offline.
Learn more »
comments
print report bad tab
3 comments total.
0 reply
hinafu 185 Mar 27, 2010 08:58 AM

How do I play it ? =D

0 reply
Mucki 165 Mar 27, 2010 10:56 AM

I don't know exactly what you mean. Are you talking about picking technique, fingering, songstructure?
Maybe this live video of the song will help you:
http://www.youtube.com/watch?v=lxiQCzMPiis
Otherwise just ask more precisely ;)

0 reply
xcronodogx 10 Jun 29, 2010 07:02 PM

First thanks for putting this up, I freaking love the acoustic version. Second, I noticed a small discretion in the post- refrain section. On the 4th bar, the 5th note on the G is actually a 10th on D. I watched the videos a few times and you can see the guy playing it reaching out to hit 10. not 5. Small discretion but I thought Id point it out. Anyways thanks again!

guest
You may want to rate the tab now too:
select rating
Wanna post a correction for this tab? Suggest correction