Oops, an error
Loading. Please wait.

Rapid Fire Tollbooth tab

1,770 views 1 this week
2 commentsread comments
1 2 3 4 5
1 last vote to show rating
add to favorites
×
Save as Personal and add changes to this tab that will be seen only by you. Learn more ›
×
You can save this tab as Personal to edit and correct it or add notes. All changes will be seen only by you. Learn more »
launch autoscroll
font size
0
reset
how to read this tab
guitar tuner
edit
Autoscroll
slow
fast
+/-
esc
set tempo
stop
Difficulty
intermediate
                          Rapid Fire Tollbooth

I did not tab the solo, and you have to listen to the song on youtube to get the correct 
but for the most part i believe i hit most of the notes.

      Main Riff
      Q         Q    Q    Q       Q     Q     H           Q     Q    H
E||----------------------------|-----------------------|-----------------------|
B||----------------------------|-----------------------|-----------------------|
G||*---------------------------|-----------------------|-----------------------|
D||*---------------------------|-----------------------|-------------2~--------|
A||---2h--------4----4---------|--2h----4~-------------|--2h----4--------------|
E||----------------------------|-----------------------|-----------------------|


                          Chorus
  H        H              Q      Q    Q    Q       Q    H        Q
---------------------||-------------------------|---------------------|
---------------------||-------------------------|---------------------|
--------------------*||*--4s-----6----6----6----|--6-------------4----|
--------------------*||*--4s-----6----6----6----|--6-------------4----|
---------------------||---2s-----4----4----4----|--4-------------2----|
--2--------3---------||-------------------------|---------------------|


  Q    Q    Q    Q       Q     Q    Q    Q        W
----------------------|------------------------|--------------------||
----------------------|------------------------|--------------------||
--6----6----6---------|--4s----6----6----6s----|--9----------------*||
--6----6----6---------|--4s----6----6----6s----|--9----------------*||
--4----4----4---------|--2s----4----4----4s----|--7-----------------||
----------------------|------------------------|--------------------||


  Q    Q    H           Q    Q    Q
---------------------|-----------------||
---------------------|-----------------||
---------------------|-----------------||
---------------------|-----------------||
--2------------------|-------2----3----||
-------4----3--------|--4--------------||


Bell

            
            
Suggest correction
Creating personal tab
Creating personal tab
You can edit any tab online and save it as your Personal.

You can edit, replace or remove any tab part or add personal notes – all changes will be seen only by you.

Personal tabs can be accessed anytime from any device, even offline.
Learn more »
Give kudos to tab author, rate the tab!
1 2 3 4 5
comments
print report bad tab
2 comments total.
0 reply
shotgunjoe 234 May 08, 2007 01:03 PM

OK, not great. I don't think its powerchords in the chorus, and at the end of the chorus it is:

-------------------------
-------------------------
-------------------------
-2-----------------------
---4-2------------2----3-
------4---3---4----------

0 reply
freakofnature 10 Sep 13, 2007 09:42 AM

This isn't actually The Mars Volta; it is the Omar Rodriguez Quintet, from the album Se Dice Bisonte, No Bufalo.
:)

guest
Wanna post a correction for this tab? Suggest correction