Oops, an error
Loading. Please wait.

All My Life tab

49 views 1 this week
no commentswrite comment
1 2 3 4 5
3 more votes to show rating
add to favorites
×
Save as Personal and add changes to this tab that will be seen only by you. Learn more ›
×
You can save this tab as Personal to edit and correct it or add notes. All changes will be seen only by you. Learn more »
launch autoscroll
font size
0
reset
how to read this tab
guitar tuner
edit
Autoscroll
slow
fast
+/-
esc
set tempo
stop
Author
G/D    (Acoustic)        

e    |--------------------2-------------2----------2---------------|
B    |---------------3-------3-------------3---------3-------------|
G    |----------2---------------2--------------2---------2---------|
D    |-------------------------------------------------------------|
A    |-------------------------------------------------------------|
E    |--3----------------------------------------------------------|

D            

e    |--------------------2-------------2----------2---------------|
B    |---------------3-------3-------------3---------3-------------|
G    |----------2---------------2--------------2---------2---------|
D    |-------------------------------------------------------------|
A    |-------------------------------------------------------------|
E    |--0----------------------------------------------------------|

Csus (Acoustic)
e    |--------------------0-------------0----------0---------------|
B    |---------------3-------3-------------3---------3-------------|
G    |--------------------------0--------------0---------0---------|
D    |------2------------------------------------------------------|
A    |---3---------------------------------------------------------|
E    |-------------------------------------------------------------|


VERSE I (Electric)

e|-----7~--14-14-14-14----7~-10-10-10-10-10—12\14-12-|
B|--7~-----------------7~--------------------------13|
G|---------------------------------------------------|
D|---------------------------------------------------|
A|---------------------------------------------------|
E|---------------------------------------------------|

VERSE II (Electric)

e|-14--10-10-10-10-10\12--12—12\14-14-14-14-14\12-12\14-12|
B|-----7~-------------------------------------------------|
G|--------------------------------------------------------|
D|--------------------------------------------------------|
A|--------------------------------------------------------|
E|--------------------------------------------------------|




SOLO
e|-----14---14--------15----15--------------|
B|------------------------------------------|
G|--14---14---14—14\16---16----16-----------|
D|------------------------------------------|
A|------------------------------------------|
E|------------------------------------------|

e|------14-----------14----------14---------14----|
B|----------15-----------15----------15---------15|
G|--14------—----14----------14----------14-------|
D|------------------------------------------------|
A|------------------------------------------------|
E|------------------------------------------------|

e|-----14---14--------15----15--------------|
B|------------------------------------------|
G|--14---14---14—14\16---16----16-----------|
D|------------------------------------------|
A|------------------------------------------|
E|------------------------------------------|



e|-----15---15------15---15-----------------|
B|------------------------------------------|
G|--16---16---—--16---16--------------------|
D|------------------------------------------|
A|------------------------------------------|
E|------------------------------------------|

INTRO
G/D G/D
D D

VERSE I

G/D        G/D
All my life

   D         D
Is not enough 

G/D        G/D
All my life

   D        D
Is not enough 
   Csus      Csus
Is not enough
   G/D       G/D
Is not Enough
Em  Csus
Time

CHORUS
           G    G
Time with you 
          Em    Em
Time with you
           G    G
Time with you 
           Em   Em
Time with you 
    Csus     Csus 
Is not enough 
    G         G
Is not enough 

B

VERSE II

G/D        G/D 
All my life
    D        D
Is not enough 
G/D        G/D 
All my life
    D         D
Is not enough 
   Csus      Csus
Is not enough
   G/D        G/D
Is not gnough
Em  Csus
Time


CHORUS
           G      G
Time with you 
           Em     Em
Time with you
           G       G
Time with you 
           Em      Em
Time with you 
   Csus      Csus 
Is not enough 
   G         G
Is not enough 

INTERLUDE
B C G D
Em C G D

Em
Time

CHORUS/OUTRO
          G    G
Time with you 
           Em  Em
Time with you
            G   G
Time with you 
          Em     Em
Time with you 
  Csus       Csus 
Is not enough 
   D         D
Is not enough 
Csus
Time
G
Time
G/D
Time



            
            
Suggest correction
Creating personal tab
Creating personal tab
You can edit any tab online and save it as your Personal.

You can edit, replace or remove any tab part or add personal notes – all changes will be seen only by you.

Personal tabs can be accessed anytime from any device, even offline.
Learn more »
Give kudos to tab author, rate the tab!
1 2 3 4 5
comments
print report bad tab
guest
You may want to rate the tab now too:
select rating
Wanna post a correction for this tab? Suggest correction