Oops, an error
Loading. Please wait.

As I Am tab

97 views 1 this week
no commentswrite comment
1 2 3 4 5
3 more votes to show rating
add to favorites
×
Save as Personal and add changes to this tab that will be seen only by you. Learn more ›
×
You can save this tab as Personal to edit and correct it or add notes. All changes will be seen only by you. Learn more »
launch autoscroll
font size
0
reset
how to read this tab
guitar tuner
edit
Autoscroll
slow
fast
+/-
esc
set tempo
stop
Author
-------------------------------------------------------------------------------
                             As I Am - The Mary Dream
-------------------------------------------------------------------------------
Tabbed by:Rafael Solis
Tuning:Eb

VERSE Lead (Electric)

e|-------8------8-------8-------8-------|
B|-----8------8-------9-------9---------|
G|--9------9-------9-------9------------|
D|--------------------------------------|
A|--------------------------------------|
E|--------------------------------------|

e|--3-1-0-------------------------------|
B|--------------------------------------|
G|--------------------------------------|
D|--------------------------------------|
A|--------------------------------------|
E|--------------------------------------|

CHORUS (Electric)

e|--7---------------7-8-----------------|
B|----8------------------8--------------|
G|-----------7--------------------------|
D|-------10------10---------------------|
A|--------------------------------------|
E|--------------------------------------|

CHORUS/BRIDGE/OUTRO (Electric)

e|--------------------------------------|
B|--5-6--8-3-6-6-5----------------------|
G|--4-5--7-3-4-5-5---------7------------|
D|-------------------9h10---------------|
A|--------------------------------------|
E|--------------------------------------|

OUTRO (Electric)

e|-----10--12------10--12--------8--10------8—10-|
B|--13---------13------------12---------12-------|
G|-----------------------------------------------|
D|-----------------------------------------------|
A|-----------------------------------------------|
E|-----------------------------------------------|

e|--20-19-15--------------15------------|
B|--------------------17------17--------|
G|--------------------------------------|
D|--------------------------------------|
A|--------------------------------------|
E|--------------------------------------|


INTRO
F                       
Ohhh Ohhhh Ohhh Ohhh   Oooooh
C
You’re just like me, you’re just like me 


VERSE I
F                                                           C
Want you to know that I’d do anything 
to feel that way, to feel that way

F                                                           C
Want you to know that I’d do anything 
to feel that way, to feel that way

CHORUS
     Am                         F
And we could stay up all night long 

          C                       G
And talk about things, talk out loud 

        Am                     F
Yeah we could stay up all night long 

          C                      G
And talk about things, talk out loud
Am     F
Ohhhh
Am      G
Yeah we

INTRO
F                       
Ohhh Ohhhh Ohhh Ohhh  Ohhh
C
You’re just like me, you’re just like me 


VERSE II
F                                                           C
Want you to know that I’d do anything 
to feel that way, to feel that way

F                                                           C
Want you to know that I’d do anything 
to feel that way, to feel that way

CHORUS
Am                         F
And we could stay up all night long 

          C                       G
And talk about things, talk out loud 

        Am                     F
Yeah we could stay up all night long 

          C                      G
And talk about things, talk out loud
Am     F
Ohhhh
Am      G
Yeah We

BRIDGE
Am                   F                      C                  G
Want you to know that I’d do anything 
for this to be, for this to be
 x2
      Am              F
The storm before the calm 

     C                G
The dark before the dawn 

    Am                   F
I always think it’s gone 

           C                      G 
And then it comes back around again

OUTRO
Am       F          C                    G
Will you take me as I am? X7


            
            
Suggest correction
Creating personal tab
Creating personal tab
You can edit any tab online and save it as your Personal.

You can edit, replace or remove any tab part or add personal notes – all changes will be seen only by you.

Personal tabs can be accessed anytime from any device, even offline.
Learn more »
Give kudos to tab author, rate the tab!
1 2 3 4 5
comments
print report bad tab
guest
You may want to rate the tab now too:
select rating
Wanna post a correction for this tab? Suggest correction