Oops, an error
Loading. Please wait.

Stuck tab

59 views 1 this week
no commentswrite comment
1 2 3 4 5
3 more votes to show rating
add to favorites
×
Save as Personal and add changes to this tab that will be seen only by you. Learn more ›
×
You can save this tab as Personal to edit and correct it or add notes. All changes will be seen only by you. Learn more »
launch autoscroll
font size
0
reset
how to read this tab
guitar tuner
edit
Autoscroll
slow
fast
+/-
esc
set tempo
stop
Author
-------------------------------------------------------------------------------
                             Stuck - The Mary Dream
-------------------------------------------------------------------------------
Tabbed by:Rafael Solis
Tuning: Standard

INTRO (Electric)

e|--------------------------------------|
B|------3------3--------3--------3------|
G|----2------2-------2--------2---------|
D|--4------4------4--------4------------|
A|--------------------------------------|
E|--------------------------------------|

VERSE Lead (Electric)
e|--------5-------5--------5--------5-----|
B|-----3-------3--------3--------3--------|
G|--2-------2--------2--------2-----------|
D|----------------------------------------|
A|----------------------------------------|
E|----------------------------------------|

BRIDGE (Electric)
e|--------2-------2-------2---------2-----|
B|-----3-------3--------3--------3--------|
G|--2-------2--------2--------2-----------|
D|----------------------------------------|
A|----------------------------------------|
E|----------------------------------------|

CHORUS/BRIDGE II/OUTRO (Electric)
e|--------------------------------------|
B|--3----3-----2----2---0---0---2---2---|
G|----2-----2-----2---2---2---2---2---2-|
D|--------------------------------------|
A|--------------------------------------|
E|--------------------------------------|



INTRO
Dsus Dsus
B  B
G G

VERSE
        B
I climb up

I fall off

       G
I climb up
        B
Well o.k., I give up

        G
I’m not gonna win this no matter what
        B
It’s a game 
I can’t play
         G
But it’s all the same day anyway

BRIDGE
        A                      G
And it really doesn’t matter where you are

A                      G 
Really doesn’t matter now

      A                       G   
No it really doesn’t matter what you are

A                      G
Really doesn’t matter now

CHORUS
          Dsus 
‘Cause you don’t know what it’s like

    G
To live on the edge of a knife

   Dsus
To open your heart til’ it bleeds

       G
To give up everything
    Em
And you don’t know how it feels 

   G
To choke on the salt of your tears

BRIDGE
          A                      G
And it really doesn’t matter where you are

A                      G
Really doesn’t matter now

VERSE II
        B
I climb up

I fall off

      G
I get stuck
           B
It’s a shame 
I can’t win

           G
‘Cause you know I want to, but then again

           B
What would I have to say?
‘
            G
Cause it’s all the same game anyway

BRIDGE  
         A                     G
And it really doesn’t matter where you are

A                      G
Really doesn’t matter now

        A                     G
No it really doesn’t matter what you are

A                     G
Really doesn’t matter now

CHORUS
     Dsus
‘Cause you don’t know what it’s like

    G
To live on the edge of a knife

    DsuS
To open your heart til it bleeds

     G
To give up everything
    Em
And you don’t know how it feels 

    G
To choke on the salt of your tears

    Dsus
To think that you’ve come so far

      G
And still be so messed up

BRIDGE II
        Dsus
And it really doesn’t matter where you are

G
Really doesn’t matter what you are

Dsus
Really doesn’t matter who you are

G
Really doesn’t matter now

OUTRO
      Dsus
‘Cause you don’t know
 G                    Dsus        

What it’s like to be stuck

Dsus
To be stuck


            
            
Suggest correction
Creating personal tab
Creating personal tab
You can edit any tab online and save it as your Personal.

You can edit, replace or remove any tab part or add personal notes – all changes will be seen only by you.

Personal tabs can be accessed anytime from any device, even offline.
Learn more »
Give kudos to tab author, rate the tab!
1 2 3 4 5
comments
print report bad tab
guest
You may want to rate the tab now too:
select rating
Wanna post a correction for this tab? Suggest correction