Oops, an error
Loading. Please wait.

Welcome Home tab

121 views 1 this week
no commentswrite comment
1 2 3 4 5
3 more votes to show rating
add to favorites
×
Save as Personal and add changes to this tab that will be seen only by you. Learn more ›
×
You can save this tab as Personal to edit and correct it or add notes. All changes will be seen only by you. Learn more »
launch autoscroll
font size
0
reset
how to read this tab
guitar tuner
edit
Autoscroll
slow
fast
+/-
esc
set tempo
stop
-------------------------------------------------------------------------------
                             Welcome Home - The Mary Dream
-------------------------------------------------------------------------------
Tabbed by:Rafael Solis
Tuning: Standard Capo 2



VERSE Lead (Electric)

e|-------------------------------------------|
B|--3--------3--------3--------3-------------|
G|-----4--------4--------4---------4---------|
D|--------5--------5--------5---------5------|
A|-------------------------------------------|
E|-------------------------------------------|

e|-------------------------------------------|
B|----------3--------3-----------------------|
G|-0--2--0-----4--------4--------------------|
D|----------------4--------------------------|
A|-------------------------------------------|
E|-------------------------------------------|

PRECHORUS (Electric)
e|--7--------7--------7--------7-------------|
B|-----8--------8--------8--------8----------|
G|--------7--------7--------7--------7-------|
D|-------------------------------------------|
A|-------------------------------------------|
E|-------------------------------------------|

e|--5--------5--------2--------2-------------|
B|-----7--------7--------3-------3-----------|
G|--------7--------7--------2-------2--------|
D|-------------------------------------------|
A|-------------------------------------------|
E|-------------------------------------------|

CHORUS (Electric)
e|--7--------7--------7--------7-------------|
B|-----8--------8--------8--------8----------|
G|--------7--------7--------7--------7-------|
D|-------------------------------------------|
A|-------------------------------------------|
E|-------------------------------------------|

e|--10----------10----------2--------2---------|
B|------10----------10---------3--------3------|
G|----------11----------11--------2--------2---|
D|---------------------------------------------|
A|---------------------------------------------|
E|---------------------------------------------|

SOLO/BRIDGE (Electric)

e|---2-------2---------3-------3---------------|
B|-----3--------3---------3------3-------------|
G|--------0--------0--------0----0-------------|
D|---------------------------------------------|
A|---------------------------------------------|
E|---------------------------------------------|

e|--------10--7--------10--7-----10--7----10--7-|
B|-----8------------8---------8---------8-------|
G|----------------------------------------------|
D|--7-------------------------------------------|
A|----------------------------------------------|
E|----------------------------------------------|

INTERLUDE (Electric)

e|--2--------2--------3-------3-----------------|
B|-----3--------3--------3-------3--------------|
G|--------0--------0--------0------0------------|
D|----------------------------------------------|
A|----------------------------------------------|
E|----------------------------------------------| 


INTRO (With Lead)
G G G D  x 2

VERSE I (With Lead)
               G
I go get my bags,
                    G   D
after my plane lands

                    G
The trees are so bare, 
                   G    D
no wonder I’m there

                 G
You only believe
                    G    D
 in what you can see

                     G 
Why can’t you believe
                   G     D
 in someone like me?


PRECHORUS

            Asus        G              D
And you’re much too far away from the stars

         Asus                  G               D
And it’s so much different than who you really are


CHORUS
        Asus
Welcome home, to this place

          G                              D
Guess it’s no place for someone like me

        Asus
Welcome home, tell me what was I thinking?

      G              D
A moment of insanity

VERSE II
G G G  D x2
                G
So I find my key
                G     D
and wait by the door

              G  
I will hesitate 
               G      D
for one minute more

                 
 G                 
You only believe
                  G     D
 in what you can see

                 G
Why can’t you believe 
                 G      D
in someone like me?

PRECHORUS
           Asus           G              D
And you’re much too far away from the stars

              Asus               G              D
And it’s so much different than who you really are


CHORUS
          Asus
Welcome home, to this place

                    G               D
Guess it’s no place for someone like me

            Asus
Welcome home, tell me what was I thinking?

      G             D
A moment of insanity

SOLO
Asus G  x 2

BRIDGE
   Asus                         G
I fumble through my bags for my key

   Asus                          G
I fumble through the dark for my heart

   G
I know it’s around here somewhere

INTERLUDE
G G G D x2

VERSE III
               G     
So I pack my bags 
                   G    D
and head for the door

                G
 I cannot stay here 
                G    D
for one minute more

              G
You only believe
                  G    D
 in what you can see

                G
Why can’t you believe 
            G        D
in someone like me

End on G


            
            
Suggest correction
Creating personal tab
Creating personal tab
You can edit any tab online and save it as your Personal.

You can edit, replace or remove any tab part or add personal notes – all changes will be seen only by you.

Personal tabs can be accessed anytime from any device, even offline.
Learn more »
Give kudos to tab author, rate the tab!
1 2 3 4 5
comments
print report bad tab
guest
You may want to rate the tab now too:
select rating
Wanna post a correction for this tab? Suggest correction