Oops, an error
Loading. Please wait.

Where We Are tab

31 views 1 this week
no commentswrite comment
1 2 3 4 5
3 more votes to show rating
add to favorites
×
Save as Personal and add changes to this tab that will be seen only by you. Learn more ›
×
You can save this tab as Personal to edit and correct it or add notes. All changes will be seen only by you. Learn more »
launch autoscroll
font size
0
reset
how to read this tab
guitar tuner
edit
Autoscroll
slow
fast
+/-
esc
set tempo
stop
Author
-------------------------------------------------------------------------------
                             Where We Are - The Mary Dream
-------------------------------------------------------------------------------
Tabbed by:Rafael Solis
Tuning: Standard

VERSE/INTRO Lead (Electric)
e|-------------0--5---------------------|
B|---3--5--3----------------------------|
G|--------------------------------------|
D|--------------------------------------|
A|--------------------------------------|
E|--------------------------------------|


BRIDGE (Electric)
e|--------------------------------------|
B|----------2---------------------------|
G|-------2-----2--4--0------------------|
D|----2---------------------------------|
A|--0-----------------------------------|
E|--------------------------------------|

CHORUS (Electric)
e|--9--10-------------------------------|
B|--10--11---------------10/7-10\12-----|
G|--11--12------------------------------|
D|--------------------------------------|
A|--------------------------------------|
E|--------------------------------------|

INTERLUDE x2 (Electric)
e|------10\12--9\10—7\9-----------14—10\12-9\10-7\9---|
B|--10\12------------------10\12-12-------------------|
G|----------------------------------------------------|
D|----------------------------------------------------|
A|----------------------------------------------------|
E|----------------------------------------------------|


OUTRO (Electric)

e|--------------------------------------|
B|-----10--------10-12------------------|
G|--11----12-11---------11~-------------|
D|--------------------------------------|
A|--------------------------------------|
E|--------------------------------------|


INTRO x 2
B Em G

VERSE
B
Here we go

                      Em   G
On a trip that never ends

B
You never know
                      Em        G
Or at least that’s what I’ve said

BRIDGE
            A           G        
Now I’m staring at the skyline

               A         G  
And there’s glitter in my eyes

CHORUS
           D  G
Where we are now

            D     G
It just can’t be helped

          D   G
Where we are now

           B (pick)
We can’t help it

VERSE II
B
The city sleeps

                           Em       G
That’s more than I can say for me

B
I’m up all night

                     Em          G
Looking for a word that’s right

BRIDGE
           A            G
Now I’m staring at the skyline


               A         G
And there’s glitter in my eyes

CHORUS
          D  G
Where we are now
          D      G
It just can’t be helped

          D   G
Where we are now

            B (pick)
We can’t help it

INTERLUDE
      G      Em 
So afraid to fall
D               A
‘Cause I feel so small

       G      Em
How did I not see?

        D        A
When you came to me

G            Em
So afraid to fall

     A
I did nothing at all

CHORUS
D           G
Where we are now
          D        G
It just can’t be helped

          D    G
Where we are now

            B (pick)
We can’t help it

OUTRO
B (pick)
We can’t help it
I can’t help it


            
            
Suggest correction
Creating personal tab
Creating personal tab
You can edit any tab online and save it as your Personal.

You can edit, replace or remove any tab part or add personal notes – all changes will be seen only by you.

Personal tabs can be accessed anytime from any device, even offline.
Learn more »
Give kudos to tab author, rate the tab!
1 2 3 4 5
comments
print report bad tab
guest
You may want to rate the tab now too:
select rating
Wanna post a correction for this tab? Suggest correction